ISO-10303-21;
HEADER;
/* Generated by software containing ST-Developer
 * from STEP Tools, Inc. (www.steptools.com) 
 */

FILE_DESCRIPTION(
/* description */ ('PE100 End Cap for socket welding, \X\D840, PN16'),
/* implementation_level */ '2;1');

FILE_NAME(
/* name */ 
'CIE-RC-040',
/* time_stamp */ '2023-01-10T10:01:31+01:00',
/* author */ ('COAB Solutions'),
/* organization */ ('GPA Flowsystem'),
/* preprocessor_version */ 'www.coabsolutions.com - creating and organizing all your 3D drawings',
/* originating_system */ 'Autodesk Inventor 2021',
/* authorisation */ '');

FILE_SCHEMA (('AUTOMOTIVE_DESIGN { 1 0 10303 214 3 1 1 }'));
ENDSEC;

DATA;
#10=MECHANICAL_DESIGN_GEOMETRIC_PRESENTATION_REPRESENTATION('',(#13),#311);
#11=SHAPE_REPRESENTATION_RELATIONSHIP('SRR','None',#318,#12);
#12=ADVANCED_BREP_SHAPE_REPRESENTATION('',(#14),#310);
#13=STYLED_ITEM('',(#327),#14);
#14=MANIFOLD_SOLID_BREP('Solid2',#137);
#15=FACE_BOUND('',#46,.T.);
#16=FACE_BOUND('',#49,.T.);
#17=FACE_BOUND('',#52,.T.);
#18=PLANE('',#163);
#19=PLANE('',#167);
#20=PLANE('',#171);
#21=LINE('',#287,#25);
#22=LINE('',#294,#26);
#23=LINE('',#302,#27);
#24=LINE('',#307,#28);
#25=VECTOR('',#186,17.75);
#26=VECTOR('',#195,20.);
#27=VECTOR('',#206,29.);
#28=VECTOR('',#213,26.25);
#29=CYLINDRICAL_SURFACE('',#161,17.75);
#30=CYLINDRICAL_SURFACE('',#165,20.);
#31=CYLINDRICAL_SURFACE('',#169,29.);
#32=CYLINDRICAL_SURFACE('',#173,26.25);
#33=FACE_OUTER_BOUND('',#42,.T.);
#34=FACE_OUTER_BOUND('',#43,.T.);
#35=FACE_OUTER_BOUND('',#44,.T.);
#36=FACE_OUTER_BOUND('',#45,.T.);
#37=FACE_OUTER_BOUND('',#47,.T.);
#38=FACE_OUTER_BOUND('',#48,.T.);
#39=FACE_OUTER_BOUND('',#50,.T.);
#40=FACE_OUTER_BOUND('',#51,.T.);
#41=FACE_OUTER_BOUND('',#53,.T.);
#42=EDGE_LOOP('',(#94,#95,#96,#97));
#43=EDGE_LOOP('',(#98,#99,#100,#101));
#44=EDGE_LOOP('',(#102,#103,#104,#105,#106));
#45=EDGE_LOOP('',(#107));
#46=EDGE_LOOP('',(#108));
#47=EDGE_LOOP('',(#109,#110,#111,#112));
#48=EDGE_LOOP('',(#113));
#49=EDGE_LOOP('',(#114));
#50=EDGE_LOOP('',(#115,#116,#117,#118));
#51=EDGE_LOOP('',(#119));
#52=EDGE_LOOP('',(#120));
#53=EDGE_LOOP('',(#121,#122,#123,#124,#125));
#54=CIRCLE('',#157,26.25);
#55=CIRCLE('',#158,26.25);
#56=CIRCLE('',#159,17.75);
#57=CIRCLE('',#160,17.75);
#58=CIRCLE('',#162,17.75);
#59=CIRCLE('',#164,20.);
#60=CIRCLE('',#166,20.);
#61=CIRCLE('',#168,29.);
#62=CIRCLE('',#170,29.);
#63=CIRCLE('',#172,26.25);
#64=B_SPLINE_CURVE_WITH_KNOTS('',2,(#244,#245,#246),.UNSPECIFIED.,.F.,.F.,
(3,3),(1.,2.),.UNSPECIFIED.);
#65=B_SPLINE_CURVE_WITH_KNOTS('',2,(#279,#280,#281),.UNSPECIFIED.,.F.,.F.,
(3,3),(1.,2.),.UNSPECIFIED.);
#66=VERTEX_POINT('',#242);
#67=VERTEX_POINT('',#243);
#68=VERTEX_POINT('',#247);
#69=VERTEX_POINT('',#277);
#70=VERTEX_POINT('',#278);
#71=VERTEX_POINT('',#282);
#72=VERTEX_POINT('',#286);
#73=VERTEX_POINT('',#290);
#74=VERTEX_POINT('',#293);
#75=VERTEX_POINT('',#297);
#76=VERTEX_POINT('',#300);
#77=VERTEX_POINT('',#304);
#78=EDGE_CURVE('',#66,#67,#64,.T.);
#79=EDGE_CURVE('',#67,#68,#54,.T.);
#80=EDGE_CURVE('',#68,#67,#55,.T.);
#81=EDGE_CURVE('',#69,#70,#65,.T.);
#82=EDGE_CURVE('',#71,#69,#56,.T.);
#83=EDGE_CURVE('',#69,#71,#57,.T.);
#84=EDGE_CURVE('',#71,#72,#21,.T.);
#85=EDGE_CURVE('',#72,#72,#58,.T.);
#86=EDGE_CURVE('',#73,#73,#59,.T.);
#87=EDGE_CURVE('',#73,#74,#22,.T.);
#88=EDGE_CURVE('',#74,#74,#60,.T.);
#89=EDGE_CURVE('',#75,#75,#61,.T.);
#90=EDGE_CURVE('',#76,#76,#62,.T.);
#91=EDGE_CURVE('',#76,#75,#23,.T.);
#92=EDGE_CURVE('',#77,#77,#63,.T.);
#93=EDGE_CURVE('',#68,#77,#24,.T.);
#94=ORIENTED_EDGE('',*,*,#78,.T.);
#95=ORIENTED_EDGE('',*,*,#79,.T.);
#96=ORIENTED_EDGE('',*,*,#80,.T.);
#97=ORIENTED_EDGE('',*,*,#78,.F.);
#98=ORIENTED_EDGE('',*,*,#81,.T.);
#99=ORIENTED_EDGE('',*,*,#81,.F.);
#100=ORIENTED_EDGE('',*,*,#82,.F.);
#101=ORIENTED_EDGE('',*,*,#83,.F.);
#102=ORIENTED_EDGE('',*,*,#83,.T.);
#103=ORIENTED_EDGE('',*,*,#84,.T.);
#104=ORIENTED_EDGE('',*,*,#85,.F.);
#105=ORIENTED_EDGE('',*,*,#84,.F.);
#106=ORIENTED_EDGE('',*,*,#82,.T.);
#107=ORIENTED_EDGE('',*,*,#86,.F.);
#108=ORIENTED_EDGE('',*,*,#85,.T.);
#109=ORIENTED_EDGE('',*,*,#86,.T.);
#110=ORIENTED_EDGE('',*,*,#87,.T.);
#111=ORIENTED_EDGE('',*,*,#88,.F.);
#112=ORIENTED_EDGE('',*,*,#87,.F.);
#113=ORIENTED_EDGE('',*,*,#89,.F.);
#114=ORIENTED_EDGE('',*,*,#88,.T.);
#115=ORIENTED_EDGE('',*,*,#90,.F.);
#116=ORIENTED_EDGE('',*,*,#91,.T.);
#117=ORIENTED_EDGE('',*,*,#89,.T.);
#118=ORIENTED_EDGE('',*,*,#91,.F.);
#119=ORIENTED_EDGE('',*,*,#90,.T.);
#120=ORIENTED_EDGE('',*,*,#92,.F.);
#121=ORIENTED_EDGE('',*,*,#79,.F.);
#122=ORIENTED_EDGE('',*,*,#80,.F.);
#123=ORIENTED_EDGE('',*,*,#93,.T.);
#124=ORIENTED_EDGE('',*,*,#92,.T.);
#125=ORIENTED_EDGE('',*,*,#93,.F.);
#126=(
BOUNDED_SURFACE()
B_SPLINE_SURFACE(2,2,((#215,#216,#217,#218,#219,#220,#221,#222,#223),(#224,
#225,#226,#227,#228,#229,#230,#231,#232),(#233,#234,#235,#236,#237,#238,
#239,#240,#241)),.UNSPECIFIED.,.F.,.T.,.F.)
B_SPLINE_SURFACE_WITH_KNOTS((3,3),(3,2,2,2,3),(1.,2.),(0.,1.5707963267949,
3.14159265358979,4.71238898038469,6.28318530717959),.UNSPECIFIED.)
GEOMETRIC_REPRESENTATION_ITEM()
RATIONAL_B_SPLINE_SURFACE(((1.,0.707106781186548,1.,0.707106781186548,1.,
0.707106781186548,1.,0.707106781186548,1.),(1.,0.707106781186548,1.,0.707106781186548,
1.,0.707106781186548,1.,0.707106781186548,1.),(1.,0.707106781186548,1.,
0.707106781186548,1.,0.707106781186548,1.,0.707106781186548,1.)))
REPRESENTATION_ITEM('')
SURFACE()
);
#127=(
BOUNDED_SURFACE()
B_SPLINE_SURFACE(2,2,((#250,#251,#252,#253,#254,#255,#256,#257,#258),(#259,
#260,#261,#262,#263,#264,#265,#266,#267),(#268,#269,#270,#271,#272,#273,
#274,#275,#276)),.UNSPECIFIED.,.F.,.T.,.F.)
B_SPLINE_SURFACE_WITH_KNOTS((3,3),(3,2,2,2,3),(1.,2.),(0.,1.5707963267949,
3.14159265358979,4.71238898038469,6.28318530717959),.UNSPECIFIED.)
GEOMETRIC_REPRESENTATION_ITEM()
RATIONAL_B_SPLINE_SURFACE(((1.,0.707106781186548,1.,0.707106781186548,1.,
0.707106781186548,1.,0.707106781186548,1.),(1.,0.707106781186548,1.,0.707106781186548,
1.,0.707106781186548,1.,0.707106781186548,1.),(1.,0.707106781186548,1.,
0.707106781186548,1.,0.707106781186548,1.,0.707106781186548,1.)))
REPRESENTATION_ITEM('')
SURFACE()
);
#128=ADVANCED_FACE('',(#33),#126,.T.);
#129=ADVANCED_FACE('',(#34),#127,.T.);
#130=ADVANCED_FACE('',(#35),#29,.F.);
#131=ADVANCED_FACE('',(#36,#15),#18,.T.);
#132=ADVANCED_FACE('',(#37),#30,.F.);
#133=ADVANCED_FACE('',(#38,#16),#19,.T.);
#134=ADVANCED_FACE('',(#39),#31,.T.);
#135=ADVANCED_FACE('',(#40,#17),#20,.T.);
#136=ADVANCED_FACE('',(#41),#32,.T.);
#137=CLOSED_SHELL('',(#128,#129,#130,#131,#132,#133,#134,#135,#136));
#138=DERIVED_UNIT_ELEMENT(#140,1.);
#139=DERIVED_UNIT_ELEMENT(#313,-3.);
#140=(
MASS_UNIT()
NAMED_UNIT(*)
SI_UNIT($,.GRAM.)
);
#141=DERIVED_UNIT((#138,#139));
#142=MEASURE_REPRESENTATION_ITEM('density measure',
POSITIVE_RATIO_MEASURE(1.),#141);
#143=PROPERTY_DEFINITION_REPRESENTATION(#148,#145);
#144=PROPERTY_DEFINITION_REPRESENTATION(#149,#146);
#145=REPRESENTATION('material name',(#147),#310);
#146=REPRESENTATION('density',(#142),#310);
#147=DESCRIPTIVE_REPRESENTATION_ITEM('PE','PE');
#148=PROPERTY_DEFINITION('material property','material name',#320);
#149=PROPERTY_DEFINITION('material property','density of part',#320);
#150=DATE_TIME_ROLE('creation_date');
#151=APPLIED_DATE_AND_TIME_ASSIGNMENT(#152,#150,(#320));
#152=DATE_AND_TIME(#153,#154);
#153=CALENDAR_DATE(2021,19,10);
#154=LOCAL_TIME(0,0,0.,#155);
#155=COORDINATED_UNIVERSAL_TIME_OFFSET(0,0,.BEHIND.);
#156=AXIS2_PLACEMENT_3D('placement',#214,#174,#175);
#157=AXIS2_PLACEMENT_3D('',#248,#176,#177);
#158=AXIS2_PLACEMENT_3D('',#249,#178,#179);
#159=AXIS2_PLACEMENT_3D('',#283,#180,#181);
#160=AXIS2_PLACEMENT_3D('',#284,#182,#183);
#161=AXIS2_PLACEMENT_3D('',#285,#184,#185);
#162=AXIS2_PLACEMENT_3D('',#288,#187,#188);
#163=AXIS2_PLACEMENT_3D('',#289,#189,#190);
#164=AXIS2_PLACEMENT_3D('',#291,#191,#192);
#165=AXIS2_PLACEMENT_3D('',#292,#193,#194);
#166=AXIS2_PLACEMENT_3D('',#295,#196,#197);
#167=AXIS2_PLACEMENT_3D('',#296,#198,#199);
#168=AXIS2_PLACEMENT_3D('',#298,#200,#201);
#169=AXIS2_PLACEMENT_3D('',#299,#202,#203);
#170=AXIS2_PLACEMENT_3D('',#301,#204,#205);
#171=AXIS2_PLACEMENT_3D('',#303,#207,#208);
#172=AXIS2_PLACEMENT_3D('',#305,#209,#210);
#173=AXIS2_PLACEMENT_3D('',#306,#211,#212);
#174=DIRECTION('axis',(0.,0.,1.));
#175=DIRECTION('refdir',(1.,0.,0.));
#176=DIRECTION('center_axis',(1.,0.,0.));
#177=DIRECTION('ref_axis',(0.,0.,-1.));
#178=DIRECTION('center_axis',(1.,0.,0.));
#179=DIRECTION('ref_axis',(0.,0.,-1.));
#180=DIRECTION('center_axis',(1.,0.,0.));
#181=DIRECTION('ref_axis',(0.,0.,-1.));
#182=DIRECTION('center_axis',(1.,0.,0.));
#183=DIRECTION('ref_axis',(0.,0.,-1.));
#184=DIRECTION('center_axis',(1.,0.,0.));
#185=DIRECTION('ref_axis',(0.,1.,0.));
#186=DIRECTION('',(-1.,0.,0.));
#187=DIRECTION('center_axis',(1.,0.,0.));
#188=DIRECTION('ref_axis',(0.,0.,-1.));
#189=DIRECTION('center_axis',(-1.,0.,0.));
#190=DIRECTION('ref_axis',(0.,0.,1.));
#191=DIRECTION('center_axis',(1.,0.,0.));
#192=DIRECTION('ref_axis',(0.,0.,-1.));
#193=DIRECTION('center_axis',(1.,0.,0.));
#194=DIRECTION('ref_axis',(0.,1.,0.));
#195=DIRECTION('',(-1.,0.,0.));
#196=DIRECTION('center_axis',(1.,0.,0.));
#197=DIRECTION('ref_axis',(0.,0.,-1.));
#198=DIRECTION('center_axis',(-1.,0.,0.));
#199=DIRECTION('ref_axis',(0.,0.,1.));
#200=DIRECTION('center_axis',(1.,0.,0.));
#201=DIRECTION('ref_axis',(0.,0.,-1.));
#202=DIRECTION('center_axis',(1.,0.,0.));
#203=DIRECTION('ref_axis',(0.,1.,0.));
#204=DIRECTION('center_axis',(1.,0.,0.));
#205=DIRECTION('ref_axis',(0.,0.,-1.));
#206=DIRECTION('',(-1.,0.,0.));
#207=DIRECTION('center_axis',(1.,0.,0.));
#208=DIRECTION('ref_axis',(0.,0.,-1.));
#209=DIRECTION('center_axis',(1.,0.,0.));
#210=DIRECTION('ref_axis',(0.,0.,-1.));
#211=DIRECTION('center_axis',(1.,0.,0.));
#212=DIRECTION('ref_axis',(0.,1.,0.));
#213=DIRECTION('',(-1.,0.,0.));
#214=CARTESIAN_POINT('',(0.,0.,0.));
#215=CARTESIAN_POINT('Ctrl Pts',(39.,0.,0.));
#216=CARTESIAN_POINT('Ctrl Pts',(39.,0.,0.));
#217=CARTESIAN_POINT('Ctrl Pts',(39.,0.,0.));
#218=CARTESIAN_POINT('Ctrl Pts',(39.,0.,0.));
#219=CARTESIAN_POINT('Ctrl Pts',(39.,0.,0.));
#220=CARTESIAN_POINT('Ctrl Pts',(39.,0.,0.));
#221=CARTESIAN_POINT('Ctrl Pts',(39.,0.,0.));
#222=CARTESIAN_POINT('Ctrl Pts',(39.,0.,0.));
#223=CARTESIAN_POINT('Ctrl Pts',(39.,0.,0.));
#224=CARTESIAN_POINT('Ctrl Pts',(39.0000000000002,26.25,0.));
#225=CARTESIAN_POINT('Ctrl Pts',(39.0000000000002,26.25,26.25));
#226=CARTESIAN_POINT('Ctrl Pts',(39.0000000000002,0.,26.25));
#227=CARTESIAN_POINT('Ctrl Pts',(39.0000000000002,-26.25,26.25));
#228=CARTESIAN_POINT('Ctrl Pts',(39.0000000000002,-26.25,0.));
#229=CARTESIAN_POINT('Ctrl Pts',(39.0000000000002,-26.25,-26.25));
#230=CARTESIAN_POINT('Ctrl Pts',(39.0000000000002,0.,-26.25));
#231=CARTESIAN_POINT('Ctrl Pts',(39.0000000000002,26.25,-26.25));
#232=CARTESIAN_POINT('Ctrl Pts',(39.0000000000002,26.25,0.));
#233=CARTESIAN_POINT('Ctrl Pts',(24.125,26.25,0.));
#234=CARTESIAN_POINT('Ctrl Pts',(24.125,26.25,26.25));
#235=CARTESIAN_POINT('Ctrl Pts',(24.125,0.,26.25));
#236=CARTESIAN_POINT('Ctrl Pts',(24.125,-26.25,26.25));
#237=CARTESIAN_POINT('Ctrl Pts',(24.125,-26.25,0.));
#238=CARTESIAN_POINT('Ctrl Pts',(24.125,-26.25,-26.25));
#239=CARTESIAN_POINT('Ctrl Pts',(24.125,0.,-26.25));
#240=CARTESIAN_POINT('Ctrl Pts',(24.125,26.25,-26.25));
#241=CARTESIAN_POINT('Ctrl Pts',(24.125,26.25,0.));
#242=CARTESIAN_POINT('',(39.,0.,0.));
#243=CARTESIAN_POINT('',(24.125,26.25,0.));
#244=CARTESIAN_POINT('Ctrl Pts',(39.,0.,0.));
#245=CARTESIAN_POINT('Ctrl Pts',(39.0000000000002,26.25,0.));
#246=CARTESIAN_POINT('Ctrl Pts',(24.125,26.25,0.));
#247=CARTESIAN_POINT('',(24.125,-26.25,-3.2146978477618E-15));
#248=CARTESIAN_POINT('Origin',(24.125,0.,0.));
#249=CARTESIAN_POINT('Origin',(24.125,0.,0.));
#250=CARTESIAN_POINT('Ctrl Pts',(24.125,17.75,0.));
#251=CARTESIAN_POINT('Ctrl Pts',(24.125,17.75,17.75));
#252=CARTESIAN_POINT('Ctrl Pts',(24.125,0.,17.75));
#253=CARTESIAN_POINT('Ctrl Pts',(24.125,-17.75,17.75));
#254=CARTESIAN_POINT('Ctrl Pts',(24.125,-17.75,0.));
#255=CARTESIAN_POINT('Ctrl Pts',(24.125,-17.75,-17.75));
#256=CARTESIAN_POINT('Ctrl Pts',(24.125,0.,-17.75));
#257=CARTESIAN_POINT('Ctrl Pts',(24.125,17.75,-17.75));
#258=CARTESIAN_POINT('Ctrl Pts',(24.125,17.75,0.));
#259=CARTESIAN_POINT('Ctrl Pts',(30.5,17.75,0.));
#260=CARTESIAN_POINT('Ctrl Pts',(30.5,17.75,17.75));
#261=CARTESIAN_POINT('Ctrl Pts',(30.5,0.,17.75));
#262=CARTESIAN_POINT('Ctrl Pts',(30.5,-17.75,17.75));
#263=CARTESIAN_POINT('Ctrl Pts',(30.5,-17.75,0.));
#264=CARTESIAN_POINT('Ctrl Pts',(30.5,-17.75,-17.75));
#265=CARTESIAN_POINT('Ctrl Pts',(30.5,0.,-17.75));
#266=CARTESIAN_POINT('Ctrl Pts',(30.5,17.75,-17.75));
#267=CARTESIAN_POINT('Ctrl Pts',(30.5,17.75,0.));
#268=CARTESIAN_POINT('Ctrl Pts',(30.5,0.,0.));
#269=CARTESIAN_POINT('Ctrl Pts',(30.5,0.,0.));
#270=CARTESIAN_POINT('Ctrl Pts',(30.5,0.,0.));
#271=CARTESIAN_POINT('Ctrl Pts',(30.5,0.,0.));
#272=CARTESIAN_POINT('Ctrl Pts',(30.5,0.,0.));
#273=CARTESIAN_POINT('Ctrl Pts',(30.5,0.,0.));
#274=CARTESIAN_POINT('Ctrl Pts',(30.5,0.,0.));
#275=CARTESIAN_POINT('Ctrl Pts',(30.5,0.,0.));
#276=CARTESIAN_POINT('Ctrl Pts',(30.5,0.,0.));
#277=CARTESIAN_POINT('',(24.125,17.75,0.));
#278=CARTESIAN_POINT('',(30.5,0.,0.));
#279=CARTESIAN_POINT('Ctrl Pts',(24.125,17.75,0.));
#280=CARTESIAN_POINT('Ctrl Pts',(30.5,17.75,0.));
#281=CARTESIAN_POINT('Ctrl Pts',(30.5,0.,0.));
#282=CARTESIAN_POINT('',(24.125,-17.75,-2.17374806848655E-15));
#283=CARTESIAN_POINT('Origin',(24.125,0.,0.));
#284=CARTESIAN_POINT('Origin',(24.125,0.,0.));
#285=CARTESIAN_POINT('Origin',(23.0625,0.,0.));
#286=CARTESIAN_POINT('',(22.,-17.75,-2.17374806848655E-15));
#287=CARTESIAN_POINT('',(23.0625,-17.75,-2.17374806848655E-15));
#288=CARTESIAN_POINT('Origin',(22.,0.,0.));
#289=CARTESIAN_POINT('Origin',(22.,20.,0.));
#290=CARTESIAN_POINT('',(22.,-20.,-2.44929359829471E-15));
#291=CARTESIAN_POINT('Origin',(22.,0.,0.));
#292=CARTESIAN_POINT('Origin',(11.,0.,0.));
#293=CARTESIAN_POINT('',(0.,-20.,-2.44929359829471E-15));
#294=CARTESIAN_POINT('',(11.,-20.,-2.44929359829471E-15));
#295=CARTESIAN_POINT('Origin',(0.,0.,0.));
#296=CARTESIAN_POINT('Origin',(-5.55111512312578E-16,29.,0.));
#297=CARTESIAN_POINT('',(-2.77555756156289E-16,-29.,-3.55147571752732E-15));
#298=CARTESIAN_POINT('Origin',(0.,0.,0.));
#299=CARTESIAN_POINT('Origin',(2.125,0.,0.));
#300=CARTESIAN_POINT('',(4.25,-29.,-3.55147571752732E-15));
#301=CARTESIAN_POINT('Origin',(4.25,0.,0.));
#302=CARTESIAN_POINT('',(2.125,-29.,-3.55147571752732E-15));
#303=CARTESIAN_POINT('Origin',(4.25,26.25,0.));
#304=CARTESIAN_POINT('',(4.25,-26.25,-3.2146978477618E-15));
#305=CARTESIAN_POINT('Origin',(4.25,0.,0.));
#306=CARTESIAN_POINT('Origin',(14.1875,0.,0.));
#307=CARTESIAN_POINT('',(14.1875,-26.25,-3.2146978477618E-15));
#308=UNCERTAINTY_MEASURE_WITH_UNIT(LENGTH_MEASURE(0.01),#312,
'DISTANCE_ACCURACY_VALUE',
'Maximum model space distance between geometric entities at asserted c
onnectivities');
#309=UNCERTAINTY_MEASURE_WITH_UNIT(LENGTH_MEASURE(0.01),#312,
'DISTANCE_ACCURACY_VALUE',
'Maximum model space distance between geometric entities at asserted c
onnectivities');
#310=(
GEOMETRIC_REPRESENTATION_CONTEXT(3)
GLOBAL_UNCERTAINTY_ASSIGNED_CONTEXT((#308))
GLOBAL_UNIT_ASSIGNED_CONTEXT((#312,#314,#315))
REPRESENTATION_CONTEXT('','3D')
);
#311=(
GEOMETRIC_REPRESENTATION_CONTEXT(3)
GLOBAL_UNCERTAINTY_ASSIGNED_CONTEXT((#309))
GLOBAL_UNIT_ASSIGNED_CONTEXT((#312,#314,#315))
REPRESENTATION_CONTEXT('','3D')
);
#312=(
LENGTH_UNIT()
NAMED_UNIT(*)
SI_UNIT(.MILLI.,.METRE.)
);
#313=(
LENGTH_UNIT()
NAMED_UNIT(*)
SI_UNIT(.CENTI.,.METRE.)
);
#314=(
NAMED_UNIT(*)
PLANE_ANGLE_UNIT()
SI_UNIT($,.RADIAN.)
);
#315=(
NAMED_UNIT(*)
SI_UNIT($,.STERADIAN.)
SOLID_ANGLE_UNIT()
);
#316=SHAPE_DEFINITION_REPRESENTATION(#317,#318);
#317=PRODUCT_DEFINITION_SHAPE('',$,#320);
#318=SHAPE_REPRESENTATION('',(#156),#310);
#319=PRODUCT_DEFINITION_CONTEXT('part definition',#324,'design');
#320=PRODUCT_DEFINITION('CIE-RC-040','CIE-RC-040',#321,#319);
#321=PRODUCT_DEFINITION_FORMATION('0',$,#326);
#322=PRODUCT_RELATED_PRODUCT_CATEGORY('CIE-RC-040','CIE-RC-040',(#326));
#323=APPLICATION_PROTOCOL_DEFINITION('international standard',
'automotive_design',2009,#324);
#324=APPLICATION_CONTEXT(
'Core Data for Automotive Mechanical Design Process');
#325=PRODUCT_CONTEXT('part definition',#324,'mechanical');
#326=PRODUCT('CIE-RC-040','CIE-RC-040',
'PE100 End Cap for socket welding, \X\D840, PN16',(#325));
#327=PRESENTATION_STYLE_ASSIGNMENT((#328));
#328=SURFACE_STYLE_USAGE(.BOTH.,#331);
#329=SURFACE_STYLE_RENDERING_WITH_PROPERTIES($,#335,(#330));
#330=SURFACE_STYLE_TRANSPARENT(0.);
#331=SURFACE_SIDE_STYLE('',(#332,#329));
#332=SURFACE_STYLE_FILL_AREA(#333);
#333=FILL_AREA_STYLE('',(#334));
#334=FILL_AREA_STYLE_COLOUR('',#335);
#335=COLOUR_RGB('',0.109803921568627,0.109803921568627,0.129411764705882);
ENDSEC;
END-ISO-10303-21;
