ISO-10303-21;
HEADER;
/* Generated by software containing ST-Developer
 * from STEP Tools, Inc. (www.steptools.com) 
 */

FILE_DESCRIPTION(
/* description */ (
'PP/Steel Blind Flange acc. EN1092-2 PN10/16, Ø63/DN50'),
/* implementation_level */ '2;1');

FILE_NAME(
/* name */ 'FCS063'
/* time_stamp */ '2021-11-10T16:27:12+01:00',
/* author */ ('COAB Solutions'),
/* organization */ ('GPA Flowsystem'),
/* preprocessor_version */ '',
/* originating_system */ 'www.coabsolutions.com',
/* authorisation */ '');

FILE_SCHEMA (('AUTOMOTIVE_DESIGN { 1 0 10303 214 3 1 1 }'));
ENDSEC;

DATA;
#10=MECHANICAL_DESIGN_GEOMETRIC_PRESENTATION_REPRESENTATION('',(#13),#248);
#11=SHAPE_REPRESENTATION_RELATIONSHIP('SRR','None',#255,#12);
#12=ADVANCED_BREP_SHAPE_REPRESENTATION('',(#14),#247);
#13=STYLED_ITEM('',(#264),#14);
#14=MANIFOLD_SOLID_BREP('Solid2',#134);
#15=FACE_BOUND('',#37,.T.);
#16=FACE_BOUND('',#38,.T.);
#17=FACE_BOUND('',#39,.T.);
#18=FACE_BOUND('',#40,.T.);
#19=FACE_BOUND('',#43,.T.);
#20=FACE_BOUND('',#44,.T.);
#21=FACE_BOUND('',#45,.T.);
#22=FACE_BOUND('',#46,.T.);
#23=PLANE('',#166);
#24=PLANE('',#170);
#25=FACE_OUTER_BOUND('',#32,.T.);
#26=FACE_OUTER_BOUND('',#33,.T.);
#27=FACE_OUTER_BOUND('',#34,.T.);
#28=FACE_OUTER_BOUND('',#35,.T.);
#29=FACE_OUTER_BOUND('',#36,.T.);
#30=FACE_OUTER_BOUND('',#41,.T.);
#31=FACE_OUTER_BOUND('',#42,.T.);
#32=EDGE_LOOP('',(#92,#93,#94,#95));
#33=EDGE_LOOP('',(#96,#97,#98,#99));
#34=EDGE_LOOP('',(#100,#101,#102,#103));
#35=EDGE_LOOP('',(#104,#105,#106,#107));
#36=EDGE_LOOP('',(#108));
#37=EDGE_LOOP('',(#109));
#38=EDGE_LOOP('',(#110));
#39=EDGE_LOOP('',(#111));
#40=EDGE_LOOP('',(#112));
#41=EDGE_LOOP('',(#113,#114,#115,#116));
#42=EDGE_LOOP('',(#117));
#43=EDGE_LOOP('',(#118));
#44=EDGE_LOOP('',(#119));
#45=EDGE_LOOP('',(#120));
#46=EDGE_LOOP('',(#121));
#47=LINE('',#217,#52);
#48=LINE('',#223,#53);
#49=LINE('',#229,#54);
#50=LINE('',#235,#55);
#51=LINE('',#243,#56);
#52=VECTOR('',#177,9.);
#53=VECTOR('',#184,9.);
#54=VECTOR('',#191,9.);
#55=VECTOR('',#198,9.);
#56=VECTOR('',#209,82.5);
#57=CIRCLE('',#155,9.);
#58=CIRCLE('',#156,9.);
#59=CIRCLE('',#158,9.);
#60=CIRCLE('',#159,9.);
#61=CIRCLE('',#161,9.);
#62=CIRCLE('',#162,9.);
#63=CIRCLE('',#164,9.);
#64=CIRCLE('',#165,9.);
#65=CIRCLE('',#167,82.5);
#66=CIRCLE('',#169,82.5);
#67=VERTEX_POINT('',#214);
#68=VERTEX_POINT('',#216);
#69=VERTEX_POINT('',#220);
#70=VERTEX_POINT('',#222);
#71=VERTEX_POINT('',#226);
#72=VERTEX_POINT('',#228);
#73=VERTEX_POINT('',#232);
#74=VERTEX_POINT('',#234);
#75=VERTEX_POINT('',#238);
#76=VERTEX_POINT('',#241);
#77=EDGE_CURVE('',#67,#67,#57,.T.);
#78=EDGE_CURVE('',#67,#68,#47,.T.);
#79=EDGE_CURVE('',#68,#68,#58,.T.);
#80=EDGE_CURVE('',#69,#69,#59,.T.);
#81=EDGE_CURVE('',#69,#70,#48,.T.);
#82=EDGE_CURVE('',#70,#70,#60,.T.);
#83=EDGE_CURVE('',#71,#71,#61,.T.);
#84=EDGE_CURVE('',#71,#72,#49,.T.);
#85=EDGE_CURVE('',#72,#72,#62,.T.);
#86=EDGE_CURVE('',#73,#73,#63,.T.);
#87=EDGE_CURVE('',#73,#74,#50,.T.);
#88=EDGE_CURVE('',#74,#74,#64,.T.);
#89=EDGE_CURVE('',#75,#75,#65,.T.);
#90=EDGE_CURVE('',#76,#76,#66,.T.);
#91=EDGE_CURVE('',#76,#75,#51,.T.);
#92=ORIENTED_EDGE('',*,*,#77,.F.);
#93=ORIENTED_EDGE('',*,*,#78,.T.);
#94=ORIENTED_EDGE('',*,*,#79,.F.);
#95=ORIENTED_EDGE('',*,*,#78,.F.);
#96=ORIENTED_EDGE('',*,*,#80,.F.);
#97=ORIENTED_EDGE('',*,*,#81,.T.);
#98=ORIENTED_EDGE('',*,*,#82,.F.);
#99=ORIENTED_EDGE('',*,*,#81,.F.);
#100=ORIENTED_EDGE('',*,*,#83,.F.);
#101=ORIENTED_EDGE('',*,*,#84,.T.);
#102=ORIENTED_EDGE('',*,*,#85,.F.);
#103=ORIENTED_EDGE('',*,*,#84,.F.);
#104=ORIENTED_EDGE('',*,*,#86,.F.);
#105=ORIENTED_EDGE('',*,*,#87,.T.);
#106=ORIENTED_EDGE('',*,*,#88,.F.);
#107=ORIENTED_EDGE('',*,*,#87,.F.);
#108=ORIENTED_EDGE('',*,*,#89,.T.);
#109=ORIENTED_EDGE('',*,*,#79,.T.);
#110=ORIENTED_EDGE('',*,*,#82,.T.);
#111=ORIENTED_EDGE('',*,*,#85,.T.);
#112=ORIENTED_EDGE('',*,*,#88,.T.);
#113=ORIENTED_EDGE('',*,*,#90,.F.);
#114=ORIENTED_EDGE('',*,*,#91,.T.);
#115=ORIENTED_EDGE('',*,*,#89,.F.);
#116=ORIENTED_EDGE('',*,*,#91,.F.);
#117=ORIENTED_EDGE('',*,*,#90,.T.);
#118=ORIENTED_EDGE('',*,*,#77,.T.);
#119=ORIENTED_EDGE('',*,*,#80,.T.);
#120=ORIENTED_EDGE('',*,*,#83,.T.);
#121=ORIENTED_EDGE('',*,*,#86,.T.);
#122=CYLINDRICAL_SURFACE('',#154,9.);
#123=CYLINDRICAL_SURFACE('',#157,9.);
#124=CYLINDRICAL_SURFACE('',#160,9.);
#125=CYLINDRICAL_SURFACE('',#163,9.);
#126=CYLINDRICAL_SURFACE('',#168,82.5);
#127=ADVANCED_FACE('',(#25),#122,.F.);
#128=ADVANCED_FACE('',(#26),#123,.F.);
#129=ADVANCED_FACE('',(#27),#124,.F.);
#130=ADVANCED_FACE('',(#28),#125,.F.);
#131=ADVANCED_FACE('',(#29,#15,#16,#17,#18),#23,.F.);
#132=ADVANCED_FACE('',(#30),#126,.T.);
#133=ADVANCED_FACE('',(#31,#19,#20,#21,#22),#24,.T.);
#134=CLOSED_SHELL('',(#127,#128,#129,#130,#131,#132,#133));
#135=DERIVED_UNIT_ELEMENT(#137,1.);
#136=DERIVED_UNIT_ELEMENT(#250,-3.);
#137=(
MASS_UNIT()
NAMED_UNIT(*)
SI_UNIT($,.GRAM.)
);
#138=DERIVED_UNIT((#135,#136));
#139=MEASURE_REPRESENTATION_ITEM('density measure',
POSITIVE_RATIO_MEASURE(1.),#138);
#140=PROPERTY_DEFINITION_REPRESENTATION(#145,#142);
#141=PROPERTY_DEFINITION_REPRESENTATION(#146,#143);
#142=REPRESENTATION('material name',(#144),#247);
#143=REPRESENTATION('density',(#139),#247);
#144=DESCRIPTIVE_REPRESENTATION_ITEM('PP (Black)','PP (Black)');
#145=PROPERTY_DEFINITION('material property','material name',#257);
#146=PROPERTY_DEFINITION('material property','density of part',#257);
#147=DATE_TIME_ROLE('creation_date');
#148=APPLIED_DATE_AND_TIME_ASSIGNMENT(#149,#147,(#257));
#149=DATE_AND_TIME(#150,#151);
#150=CALENDAR_DATE(2021,19,10);
#151=LOCAL_TIME(0,0,0.,#152);
#152=COORDINATED_UNIVERSAL_TIME_OFFSET(0,0,.BEHIND.);
#153=AXIS2_PLACEMENT_3D('placement',#212,#171,#172);
#154=AXIS2_PLACEMENT_3D('',#213,#173,#174);
#155=AXIS2_PLACEMENT_3D('',#215,#175,#176);
#156=AXIS2_PLACEMENT_3D('',#218,#178,#179);
#157=AXIS2_PLACEMENT_3D('',#219,#180,#181);
#158=AXIS2_PLACEMENT_3D('',#221,#182,#183);
#159=AXIS2_PLACEMENT_3D('',#224,#185,#186);
#160=AXIS2_PLACEMENT_3D('',#225,#187,#188);
#161=AXIS2_PLACEMENT_3D('',#227,#189,#190);
#162=AXIS2_PLACEMENT_3D('',#230,#192,#193);
#163=AXIS2_PLACEMENT_3D('',#231,#194,#195);
#164=AXIS2_PLACEMENT_3D('',#233,#196,#197);
#165=AXIS2_PLACEMENT_3D('',#236,#199,#200);
#166=AXIS2_PLACEMENT_3D('',#237,#201,#202);
#167=AXIS2_PLACEMENT_3D('',#239,#203,#204);
#168=AXIS2_PLACEMENT_3D('',#240,#205,#206);
#169=AXIS2_PLACEMENT_3D('',#242,#207,#208);
#170=AXIS2_PLACEMENT_3D('',#244,#210,#211);
#171=DIRECTION('axis',(0.,0.,1.));
#172=DIRECTION('refdir',(1.,0.,0.));
#173=DIRECTION('center_axis',(0.,1.,0.));
#174=DIRECTION('ref_axis',(1.83697019872103E-16,0.,-1.));
#175=DIRECTION('center_axis',(0.,-1.,0.));
#176=DIRECTION('ref_axis',(1.83697019872103E-16,0.,-1.));
#177=DIRECTION('',(0.,-1.,0.));
#178=DIRECTION('center_axis',(0.,1.,0.));
#179=DIRECTION('ref_axis',(1.83697019872103E-16,0.,-1.));
#180=DIRECTION('center_axis',(0.,1.,0.));
#181=DIRECTION('ref_axis',(1.,0.,1.22464679914735E-16));
#182=DIRECTION('center_axis',(0.,-1.,0.));
#183=DIRECTION('ref_axis',(1.,0.,1.22464679914735E-16));
#184=DIRECTION('',(0.,-1.,0.));
#185=DIRECTION('center_axis',(0.,1.,0.));
#186=DIRECTION('ref_axis',(1.,0.,1.22464679914735E-16));
#187=DIRECTION('center_axis',(0.,1.,0.));
#188=DIRECTION('ref_axis',(-6.12323399573677E-17,0.,1.));
#189=DIRECTION('center_axis',(0.,-1.,0.));
#190=DIRECTION('ref_axis',(-6.12323399573677E-17,0.,1.));
#191=DIRECTION('',(0.,-1.,0.));
#192=DIRECTION('center_axis',(0.,1.,0.));
#193=DIRECTION('ref_axis',(-6.12323399573677E-17,0.,1.));
#194=DIRECTION('center_axis',(0.,1.,0.));
#195=DIRECTION('ref_axis',(-1.,0.,0.));
#196=DIRECTION('center_axis',(0.,-1.,0.));
#197=DIRECTION('ref_axis',(-1.,0.,0.));
#198=DIRECTION('',(0.,-1.,0.));
#199=DIRECTION('center_axis',(0.,1.,0.));
#200=DIRECTION('ref_axis',(-1.,0.,0.));
#201=DIRECTION('center_axis',(0.,1.,0.));
#202=DIRECTION('ref_axis',(0.,0.,1.));
#203=DIRECTION('center_axis',(0.,-1.,0.));
#204=DIRECTION('ref_axis',(-1.,0.,0.));
#205=DIRECTION('center_axis',(0.,1.,0.));
#206=DIRECTION('ref_axis',(-1.,0.,0.));
#207=DIRECTION('center_axis',(0.,1.,0.));
#208=DIRECTION('ref_axis',(-1.,0.,0.));
#209=DIRECTION('',(0.,-1.,0.));
#210=DIRECTION('center_axis',(0.,1.,0.));
#211=DIRECTION('ref_axis',(0.,0.,1.));
#212=CARTESIAN_POINT('',(0.,0.,0.));
#213=CARTESIAN_POINT('Origin',(44.1941738241592,0.,44.1941738241592));
#214=CARTESIAN_POINT('',(44.1941738241592,9.,53.1941738241592));
#215=CARTESIAN_POINT('Origin',(44.1941738241592,9.,44.1941738241592));
#216=CARTESIAN_POINT('',(44.1941738241592,-9.,53.1941738241592));
#217=CARTESIAN_POINT('',(44.1941738241592,0.,53.1941738241592));
#218=CARTESIAN_POINT('Origin',(44.1941738241592,-9.,44.1941738241592));
#219=CARTESIAN_POINT('Origin',(-44.1941738241592,0.,44.1941738241592));
#220=CARTESIAN_POINT('',(-53.1941738241592,9.,44.1941738241592));
#221=CARTESIAN_POINT('Origin',(-44.1941738241592,9.,44.1941738241592));
#222=CARTESIAN_POINT('',(-53.1941738241592,-9.,44.1941738241592));
#223=CARTESIAN_POINT('',(-53.1941738241592,0.,44.1941738241592));
#224=CARTESIAN_POINT('Origin',(-44.1941738241592,-9.,44.1941738241592));
#225=CARTESIAN_POINT('Origin',(-44.1941738241592,0.,-44.1941738241592));
#226=CARTESIAN_POINT('',(-44.1941738241592,9.,-53.1941738241592));
#227=CARTESIAN_POINT('Origin',(-44.1941738241592,9.,-44.1941738241592));
#228=CARTESIAN_POINT('',(-44.1941738241592,-9.,-53.1941738241592));
#229=CARTESIAN_POINT('',(-44.1941738241592,0.,-53.1941738241592));
#230=CARTESIAN_POINT('Origin',(-44.1941738241592,-9.,-44.1941738241592));
#231=CARTESIAN_POINT('Origin',(44.1941738241592,0.,-44.1941738241592));
#232=CARTESIAN_POINT('',(53.1941738241592,9.,-44.1941738241592));
#233=CARTESIAN_POINT('Origin',(44.1941738241592,9.,-44.1941738241592));
#234=CARTESIAN_POINT('',(53.1941738241592,-9.,-44.1941738241592));
#235=CARTESIAN_POINT('',(53.1941738241592,0.,-44.1941738241592));
#236=CARTESIAN_POINT('Origin',(44.1941738241592,-9.,-44.1941738241592));
#237=CARTESIAN_POINT('Origin',(0.,-9.,0.));
#238=CARTESIAN_POINT('',(82.5,-9.,-1.01033360929657E-14));
#239=CARTESIAN_POINT('Origin',(0.,-9.,0.));
#240=CARTESIAN_POINT('Origin',(0.,0.,0.));
#241=CARTESIAN_POINT('',(82.5,9.,-1.01033360929657E-14));
#242=CARTESIAN_POINT('Origin',(0.,9.,0.));
#243=CARTESIAN_POINT('',(82.5,0.,-1.01033360929657E-14));
#244=CARTESIAN_POINT('Origin',(0.,9.,0.));
#245=UNCERTAINTY_MEASURE_WITH_UNIT(LENGTH_MEASURE(0.01),#249,
'DISTANCE_ACCURACY_VALUE',
'Maximum model space distance between geometric entities at asserted c
onnectivities');
#246=UNCERTAINTY_MEASURE_WITH_UNIT(LENGTH_MEASURE(0.01),#249,
'DISTANCE_ACCURACY_VALUE',
'Maximum model space distance between geometric entities at asserted c
onnectivities');
#247=(
GEOMETRIC_REPRESENTATION_CONTEXT(3)
GLOBAL_UNCERTAINTY_ASSIGNED_CONTEXT((#245))
GLOBAL_UNIT_ASSIGNED_CONTEXT((#249,#251,#252))
REPRESENTATION_CONTEXT('','3D')
);
#248=(
GEOMETRIC_REPRESENTATION_CONTEXT(3)
GLOBAL_UNCERTAINTY_ASSIGNED_CONTEXT((#246))
GLOBAL_UNIT_ASSIGNED_CONTEXT((#249,#251,#252))
REPRESENTATION_CONTEXT('','3D')
);
#249=(
LENGTH_UNIT()
NAMED_UNIT(*)
SI_UNIT(.MILLI.,.METRE.)
);
#250=(
LENGTH_UNIT()
NAMED_UNIT(*)
SI_UNIT(.CENTI.,.METRE.)
);
#251=(
NAMED_UNIT(*)
PLANE_ANGLE_UNIT()
SI_UNIT($,.RADIAN.)
);
#252=(
NAMED_UNIT(*)
SI_UNIT($,.STERADIAN.)
SOLID_ANGLE_UNIT()
);
#253=SHAPE_DEFINITION_REPRESENTATION(#254,#255);
#254=PRODUCT_DEFINITION_SHAPE('',$,#257);
#255=SHAPE_REPRESENTATION('',(#153),#247);
#256=PRODUCT_DEFINITION_CONTEXT('part definition',#261,'design');
#257=PRODUCT_DEFINITION('FCS063','FCS063',#258,#256);
#258=PRODUCT_DEFINITION_FORMATION('0',$,#263);
#259=PRODUCT_RELATED_PRODUCT_CATEGORY('FCS063','FCS063',(#263));
#260=APPLICATION_PROTOCOL_DEFINITION('international standard',
'automotive_design',2009,#261);
#261=APPLICATION_CONTEXT(
'Core Data for Automotive Mechanical Design Process');
#262=PRODUCT_CONTEXT('part definition',#261,'mechanical');
#263=PRODUCT('FCS063','FCS063',
'PP/Steel Blind Flange acc. EN1092-2 PN10/16, \X\D863/DN50',(#262));
#264=PRESENTATION_STYLE_ASSIGNMENT((#265));
#265=SURFACE_STYLE_USAGE(.BOTH.,#268);
#266=SURFACE_STYLE_RENDERING_WITH_PROPERTIES($,#272,(#267));
#267=SURFACE_STYLE_TRANSPARENT(0.);
#268=SURFACE_SIDE_STYLE('',(#269,#266));
#269=SURFACE_STYLE_FILL_AREA(#270);
#270=FILL_AREA_STYLE('',(#271));
#271=FILL_AREA_STYLE_COLOUR('',#272);
#272=COLOUR_RGB('',0.109803921568627,0.109803921568627,0.129411764705882);
ENDSEC;
END-ISO-10303-21;
