ISO-10303-21;
HEADER;
/* Generated by software containing ST-Developer
 * from STEP Tools, Inc. (www.steptools.com) 
 */

FILE_DESCRIPTION(
/* description */ (
'PP/Steel Blind Flange acc. EN1092-2 PN10/16, Ø140/DN125'),
/* implementation_level */ '2;1');

FILE_NAME(
/* name */ 'FCS140'
/* time_stamp */ '2021-11-10T16:27:17+01:00',
/* author */ ('COAB Solutions'),
/* organization */ ('GPA Flowsystem'),
/* preprocessor_version */ '',
/* originating_system */ 'www.coabsolutions.com',
/* authorisation */ '');

FILE_SCHEMA (('AUTOMOTIVE_DESIGN { 1 0 10303 214 3 1 1 }'));
ENDSEC;

DATA;
#10=MECHANICAL_DESIGN_GEOMETRIC_PRESENTATION_REPRESENTATION('',(#13),#404);
#11=SHAPE_REPRESENTATION_RELATIONSHIP('SRR','None',#411,#12);
#12=ADVANCED_BREP_SHAPE_REPRESENTATION('',(#14),#403);
#13=STYLED_ITEM('',(#420),#14);
#14=MANIFOLD_SOLID_BREP('Solid2',#226);
#15=FACE_BOUND('',#53,.T.);
#16=FACE_BOUND('',#54,.T.);
#17=FACE_BOUND('',#55,.T.);
#18=FACE_BOUND('',#56,.T.);
#19=FACE_BOUND('',#57,.T.);
#20=FACE_BOUND('',#58,.T.);
#21=FACE_BOUND('',#59,.T.);
#22=FACE_BOUND('',#60,.T.);
#23=FACE_BOUND('',#63,.T.);
#24=FACE_BOUND('',#64,.T.);
#25=FACE_BOUND('',#65,.T.);
#26=FACE_BOUND('',#66,.T.);
#27=FACE_BOUND('',#67,.T.);
#28=FACE_BOUND('',#68,.T.);
#29=FACE_BOUND('',#69,.T.);
#30=FACE_BOUND('',#70,.T.);
#31=PLANE('',#270);
#32=PLANE('',#274);
#33=FACE_OUTER_BOUND('',#44,.T.);
#34=FACE_OUTER_BOUND('',#45,.T.);
#35=FACE_OUTER_BOUND('',#46,.T.);
#36=FACE_OUTER_BOUND('',#47,.T.);
#37=FACE_OUTER_BOUND('',#48,.T.);
#38=FACE_OUTER_BOUND('',#49,.T.);
#39=FACE_OUTER_BOUND('',#50,.T.);
#40=FACE_OUTER_BOUND('',#51,.T.);
#41=FACE_OUTER_BOUND('',#52,.T.);
#42=FACE_OUTER_BOUND('',#61,.T.);
#43=FACE_OUTER_BOUND('',#62,.T.);
#44=EDGE_LOOP('',(#152,#153,#154,#155));
#45=EDGE_LOOP('',(#156,#157,#158,#159));
#46=EDGE_LOOP('',(#160,#161,#162,#163));
#47=EDGE_LOOP('',(#164,#165,#166,#167));
#48=EDGE_LOOP('',(#168,#169,#170,#171));
#49=EDGE_LOOP('',(#172,#173,#174,#175));
#50=EDGE_LOOP('',(#176,#177,#178,#179));
#51=EDGE_LOOP('',(#180,#181,#182,#183));
#52=EDGE_LOOP('',(#184));
#53=EDGE_LOOP('',(#185));
#54=EDGE_LOOP('',(#186));
#55=EDGE_LOOP('',(#187));
#56=EDGE_LOOP('',(#188));
#57=EDGE_LOOP('',(#189));
#58=EDGE_LOOP('',(#190));
#59=EDGE_LOOP('',(#191));
#60=EDGE_LOOP('',(#192));
#61=EDGE_LOOP('',(#193,#194,#195,#196));
#62=EDGE_LOOP('',(#197));
#63=EDGE_LOOP('',(#198));
#64=EDGE_LOOP('',(#199));
#65=EDGE_LOOP('',(#200));
#66=EDGE_LOOP('',(#201));
#67=EDGE_LOOP('',(#202));
#68=EDGE_LOOP('',(#203));
#69=EDGE_LOOP('',(#204));
#70=EDGE_LOOP('',(#205));
#71=LINE('',#349,#80);
#72=LINE('',#355,#81);
#73=LINE('',#361,#82);
#74=LINE('',#367,#83);
#75=LINE('',#373,#84);
#76=LINE('',#379,#85);
#77=LINE('',#385,#86);
#78=LINE('',#391,#87);
#79=LINE('',#399,#88);
#80=VECTOR('',#281,9.);
#81=VECTOR('',#288,9.);
#82=VECTOR('',#295,9.);
#83=VECTOR('',#302,9.);
#84=VECTOR('',#309,9.);
#85=VECTOR('',#316,9.);
#86=VECTOR('',#323,9.);
#87=VECTOR('',#330,9.);
#88=VECTOR('',#341,125.);
#89=CIRCLE('',#247,9.);
#90=CIRCLE('',#248,9.);
#91=CIRCLE('',#250,9.);
#92=CIRCLE('',#251,9.);
#93=CIRCLE('',#253,9.);
#94=CIRCLE('',#254,9.);
#95=CIRCLE('',#256,9.);
#96=CIRCLE('',#257,9.);
#97=CIRCLE('',#259,9.);
#98=CIRCLE('',#260,9.);
#99=CIRCLE('',#262,9.);
#100=CIRCLE('',#263,9.);
#101=CIRCLE('',#265,9.);
#102=CIRCLE('',#266,9.);
#103=CIRCLE('',#268,9.);
#104=CIRCLE('',#269,9.);
#105=CIRCLE('',#271,125.);
#106=CIRCLE('',#273,125.);
#107=VERTEX_POINT('',#346);
#108=VERTEX_POINT('',#348);
#109=VERTEX_POINT('',#352);
#110=VERTEX_POINT('',#354);
#111=VERTEX_POINT('',#358);
#112=VERTEX_POINT('',#360);
#113=VERTEX_POINT('',#364);
#114=VERTEX_POINT('',#366);
#115=VERTEX_POINT('',#370);
#116=VERTEX_POINT('',#372);
#117=VERTEX_POINT('',#376);
#118=VERTEX_POINT('',#378);
#119=VERTEX_POINT('',#382);
#120=VERTEX_POINT('',#384);
#121=VERTEX_POINT('',#388);
#122=VERTEX_POINT('',#390);
#123=VERTEX_POINT('',#394);
#124=VERTEX_POINT('',#397);
#125=EDGE_CURVE('',#107,#107,#89,.T.);
#126=EDGE_CURVE('',#107,#108,#71,.T.);
#127=EDGE_CURVE('',#108,#108,#90,.T.);
#128=EDGE_CURVE('',#109,#109,#91,.T.);
#129=EDGE_CURVE('',#109,#110,#72,.T.);
#130=EDGE_CURVE('',#110,#110,#92,.T.);
#131=EDGE_CURVE('',#111,#111,#93,.T.);
#132=EDGE_CURVE('',#111,#112,#73,.T.);
#133=EDGE_CURVE('',#112,#112,#94,.T.);
#134=EDGE_CURVE('',#113,#113,#95,.T.);
#135=EDGE_CURVE('',#113,#114,#74,.T.);
#136=EDGE_CURVE('',#114,#114,#96,.T.);
#137=EDGE_CURVE('',#115,#115,#97,.T.);
#138=EDGE_CURVE('',#115,#116,#75,.T.);
#139=EDGE_CURVE('',#116,#116,#98,.T.);
#140=EDGE_CURVE('',#117,#117,#99,.T.);
#141=EDGE_CURVE('',#117,#118,#76,.T.);
#142=EDGE_CURVE('',#118,#118,#100,.T.);
#143=EDGE_CURVE('',#119,#119,#101,.T.);
#144=EDGE_CURVE('',#119,#120,#77,.T.);
#145=EDGE_CURVE('',#120,#120,#102,.T.);
#146=EDGE_CURVE('',#121,#121,#103,.T.);
#147=EDGE_CURVE('',#121,#122,#78,.T.);
#148=EDGE_CURVE('',#122,#122,#104,.T.);
#149=EDGE_CURVE('',#123,#123,#105,.T.);
#150=EDGE_CURVE('',#124,#124,#106,.T.);
#151=EDGE_CURVE('',#124,#123,#79,.T.);
#152=ORIENTED_EDGE('',*,*,#125,.F.);
#153=ORIENTED_EDGE('',*,*,#126,.T.);
#154=ORIENTED_EDGE('',*,*,#127,.F.);
#155=ORIENTED_EDGE('',*,*,#126,.F.);
#156=ORIENTED_EDGE('',*,*,#128,.F.);
#157=ORIENTED_EDGE('',*,*,#129,.T.);
#158=ORIENTED_EDGE('',*,*,#130,.F.);
#159=ORIENTED_EDGE('',*,*,#129,.F.);
#160=ORIENTED_EDGE('',*,*,#131,.F.);
#161=ORIENTED_EDGE('',*,*,#132,.T.);
#162=ORIENTED_EDGE('',*,*,#133,.F.);
#163=ORIENTED_EDGE('',*,*,#132,.F.);
#164=ORIENTED_EDGE('',*,*,#134,.F.);
#165=ORIENTED_EDGE('',*,*,#135,.T.);
#166=ORIENTED_EDGE('',*,*,#136,.F.);
#167=ORIENTED_EDGE('',*,*,#135,.F.);
#168=ORIENTED_EDGE('',*,*,#137,.F.);
#169=ORIENTED_EDGE('',*,*,#138,.T.);
#170=ORIENTED_EDGE('',*,*,#139,.F.);
#171=ORIENTED_EDGE('',*,*,#138,.F.);
#172=ORIENTED_EDGE('',*,*,#140,.F.);
#173=ORIENTED_EDGE('',*,*,#141,.T.);
#174=ORIENTED_EDGE('',*,*,#142,.F.);
#175=ORIENTED_EDGE('',*,*,#141,.F.);
#176=ORIENTED_EDGE('',*,*,#143,.F.);
#177=ORIENTED_EDGE('',*,*,#144,.T.);
#178=ORIENTED_EDGE('',*,*,#145,.F.);
#179=ORIENTED_EDGE('',*,*,#144,.F.);
#180=ORIENTED_EDGE('',*,*,#146,.F.);
#181=ORIENTED_EDGE('',*,*,#147,.T.);
#182=ORIENTED_EDGE('',*,*,#148,.F.);
#183=ORIENTED_EDGE('',*,*,#147,.F.);
#184=ORIENTED_EDGE('',*,*,#149,.T.);
#185=ORIENTED_EDGE('',*,*,#127,.T.);
#186=ORIENTED_EDGE('',*,*,#130,.T.);
#187=ORIENTED_EDGE('',*,*,#133,.T.);
#188=ORIENTED_EDGE('',*,*,#136,.T.);
#189=ORIENTED_EDGE('',*,*,#139,.T.);
#190=ORIENTED_EDGE('',*,*,#142,.T.);
#191=ORIENTED_EDGE('',*,*,#145,.T.);
#192=ORIENTED_EDGE('',*,*,#148,.T.);
#193=ORIENTED_EDGE('',*,*,#150,.F.);
#194=ORIENTED_EDGE('',*,*,#151,.T.);
#195=ORIENTED_EDGE('',*,*,#149,.F.);
#196=ORIENTED_EDGE('',*,*,#151,.F.);
#197=ORIENTED_EDGE('',*,*,#150,.T.);
#198=ORIENTED_EDGE('',*,*,#125,.T.);
#199=ORIENTED_EDGE('',*,*,#128,.T.);
#200=ORIENTED_EDGE('',*,*,#131,.T.);
#201=ORIENTED_EDGE('',*,*,#134,.T.);
#202=ORIENTED_EDGE('',*,*,#137,.T.);
#203=ORIENTED_EDGE('',*,*,#140,.T.);
#204=ORIENTED_EDGE('',*,*,#143,.T.);
#205=ORIENTED_EDGE('',*,*,#146,.T.);
#206=CYLINDRICAL_SURFACE('',#246,9.);
#207=CYLINDRICAL_SURFACE('',#249,9.);
#208=CYLINDRICAL_SURFACE('',#252,9.);
#209=CYLINDRICAL_SURFACE('',#255,9.);
#210=CYLINDRICAL_SURFACE('',#258,9.);
#211=CYLINDRICAL_SURFACE('',#261,9.);
#212=CYLINDRICAL_SURFACE('',#264,9.);
#213=CYLINDRICAL_SURFACE('',#267,9.);
#214=CYLINDRICAL_SURFACE('',#272,125.);
#215=ADVANCED_FACE('',(#33),#206,.F.);
#216=ADVANCED_FACE('',(#34),#207,.F.);
#217=ADVANCED_FACE('',(#35),#208,.F.);
#218=ADVANCED_FACE('',(#36),#209,.F.);
#219=ADVANCED_FACE('',(#37),#210,.F.);
#220=ADVANCED_FACE('',(#38),#211,.F.);
#221=ADVANCED_FACE('',(#39),#212,.F.);
#222=ADVANCED_FACE('',(#40),#213,.F.);
#223=ADVANCED_FACE('',(#41,#15,#16,#17,#18,#19,#20,#21,#22),#31,.F.);
#224=ADVANCED_FACE('',(#42),#214,.T.);
#225=ADVANCED_FACE('',(#43,#23,#24,#25,#26,#27,#28,#29,#30),#32,.T.);
#226=CLOSED_SHELL('',(#215,#216,#217,#218,#219,#220,#221,#222,#223,#224,
#225));
#227=DERIVED_UNIT_ELEMENT(#229,1.);
#228=DERIVED_UNIT_ELEMENT(#406,-3.);
#229=(
MASS_UNIT()
NAMED_UNIT(*)
SI_UNIT($,.GRAM.)
);
#230=DERIVED_UNIT((#227,#228));
#231=MEASURE_REPRESENTATION_ITEM('density measure',
POSITIVE_RATIO_MEASURE(1.),#230);
#232=PROPERTY_DEFINITION_REPRESENTATION(#237,#234);
#233=PROPERTY_DEFINITION_REPRESENTATION(#238,#235);
#234=REPRESENTATION('material name',(#236),#403);
#235=REPRESENTATION('density',(#231),#403);
#236=DESCRIPTIVE_REPRESENTATION_ITEM('PP (Black)','PP (Black)');
#237=PROPERTY_DEFINITION('material property','material name',#413);
#238=PROPERTY_DEFINITION('material property','density of part',#413);
#239=DATE_TIME_ROLE('creation_date');
#240=APPLIED_DATE_AND_TIME_ASSIGNMENT(#241,#239,(#413));
#241=DATE_AND_TIME(#242,#243);
#242=CALENDAR_DATE(2021,19,10);
#243=LOCAL_TIME(0,0,0.,#244);
#244=COORDINATED_UNIVERSAL_TIME_OFFSET(0,0,.BEHIND.);
#245=AXIS2_PLACEMENT_3D('placement',#344,#275,#276);
#246=AXIS2_PLACEMENT_3D('',#345,#277,#278);
#247=AXIS2_PLACEMENT_3D('',#347,#279,#280);
#248=AXIS2_PLACEMENT_3D('',#350,#282,#283);
#249=AXIS2_PLACEMENT_3D('',#351,#284,#285);
#250=AXIS2_PLACEMENT_3D('',#353,#286,#287);
#251=AXIS2_PLACEMENT_3D('',#356,#289,#290);
#252=AXIS2_PLACEMENT_3D('',#357,#291,#292);
#253=AXIS2_PLACEMENT_3D('',#359,#293,#294);
#254=AXIS2_PLACEMENT_3D('',#362,#296,#297);
#255=AXIS2_PLACEMENT_3D('',#363,#298,#299);
#256=AXIS2_PLACEMENT_3D('',#365,#300,#301);
#257=AXIS2_PLACEMENT_3D('',#368,#303,#304);
#258=AXIS2_PLACEMENT_3D('',#369,#305,#306);
#259=AXIS2_PLACEMENT_3D('',#371,#307,#308);
#260=AXIS2_PLACEMENT_3D('',#374,#310,#311);
#261=AXIS2_PLACEMENT_3D('',#375,#312,#313);
#262=AXIS2_PLACEMENT_3D('',#377,#314,#315);
#263=AXIS2_PLACEMENT_3D('',#380,#317,#318);
#264=AXIS2_PLACEMENT_3D('',#381,#319,#320);
#265=AXIS2_PLACEMENT_3D('',#383,#321,#322);
#266=AXIS2_PLACEMENT_3D('',#386,#324,#325);
#267=AXIS2_PLACEMENT_3D('',#387,#326,#327);
#268=AXIS2_PLACEMENT_3D('',#389,#328,#329);
#269=AXIS2_PLACEMENT_3D('',#392,#331,#332);
#270=AXIS2_PLACEMENT_3D('',#393,#333,#334);
#271=AXIS2_PLACEMENT_3D('',#395,#335,#336);
#272=AXIS2_PLACEMENT_3D('',#396,#337,#338);
#273=AXIS2_PLACEMENT_3D('',#398,#339,#340);
#274=AXIS2_PLACEMENT_3D('',#400,#342,#343);
#275=DIRECTION('axis',(0.,0.,1.));
#276=DIRECTION('refdir',(1.,0.,0.));
#277=DIRECTION('center_axis',(0.,1.,0.));
#278=DIRECTION('ref_axis',(-0.707106781186547,0.,-0.707106781186548));
#279=DIRECTION('center_axis',(0.,-1.,0.));
#280=DIRECTION('ref_axis',(-0.707106781186547,0.,-0.707106781186548));
#281=DIRECTION('',(0.,-1.,0.));
#282=DIRECTION('center_axis',(0.,1.,0.));
#283=DIRECTION('ref_axis',(-0.707106781186547,0.,-0.707106781186548));
#284=DIRECTION('center_axis',(0.,1.,0.));
#285=DIRECTION('ref_axis',(1.85037170770859E-16,0.,-1.));
#286=DIRECTION('center_axis',(0.,-1.,0.));
#287=DIRECTION('ref_axis',(1.85037170770859E-16,0.,-1.));
#288=DIRECTION('',(0.,-1.,0.));
#289=DIRECTION('center_axis',(0.,1.,0.));
#290=DIRECTION('ref_axis',(1.85037170770859E-16,0.,-1.));
#291=DIRECTION('center_axis',(0.,1.,0.));
#292=DIRECTION('ref_axis',(0.707106781186548,0.,-0.707106781186547));
#293=DIRECTION('center_axis',(0.,-1.,0.));
#294=DIRECTION('ref_axis',(0.707106781186548,0.,-0.707106781186547));
#295=DIRECTION('',(0.,-1.,0.));
#296=DIRECTION('center_axis',(0.,1.,0.));
#297=DIRECTION('ref_axis',(0.707106781186548,0.,-0.707106781186547));
#298=DIRECTION('center_axis',(0.,1.,0.));
#299=DIRECTION('ref_axis',(1.,0.,1.85037170770859E-16));
#300=DIRECTION('center_axis',(0.,-1.,0.));
#301=DIRECTION('ref_axis',(1.,0.,1.85037170770859E-16));
#302=DIRECTION('',(0.,-1.,0.));
#303=DIRECTION('center_axis',(0.,1.,0.));
#304=DIRECTION('ref_axis',(1.,0.,1.85037170770859E-16));
#305=DIRECTION('center_axis',(0.,1.,0.));
#306=DIRECTION('ref_axis',(0.707106781186547,0.,0.707106781186548));
#307=DIRECTION('center_axis',(0.,-1.,0.));
#308=DIRECTION('ref_axis',(0.707106781186547,0.,0.707106781186548));
#309=DIRECTION('',(0.,-1.,0.));
#310=DIRECTION('center_axis',(0.,1.,0.));
#311=DIRECTION('ref_axis',(0.707106781186547,0.,0.707106781186548));
#312=DIRECTION('center_axis',(0.,1.,0.));
#313=DIRECTION('ref_axis',(0.,0.,1.));
#314=DIRECTION('center_axis',(0.,-1.,0.));
#315=DIRECTION('ref_axis',(0.,0.,1.));
#316=DIRECTION('',(0.,-1.,0.));
#317=DIRECTION('center_axis',(0.,1.,0.));
#318=DIRECTION('ref_axis',(0.,0.,1.));
#319=DIRECTION('center_axis',(0.,1.,0.));
#320=DIRECTION('ref_axis',(-0.707106781186548,0.,0.707106781186548));
#321=DIRECTION('center_axis',(0.,-1.,0.));
#322=DIRECTION('ref_axis',(-0.707106781186548,0.,0.707106781186548));
#323=DIRECTION('',(0.,-1.,0.));
#324=DIRECTION('center_axis',(0.,1.,0.));
#325=DIRECTION('ref_axis',(-0.707106781186548,0.,0.707106781186548));
#326=DIRECTION('center_axis',(0.,1.,0.));
#327=DIRECTION('ref_axis',(-1.,0.,0.));
#328=DIRECTION('center_axis',(0.,-1.,0.));
#329=DIRECTION('ref_axis',(-1.,0.,0.));
#330=DIRECTION('',(0.,-1.,0.));
#331=DIRECTION('center_axis',(0.,1.,0.));
#332=DIRECTION('ref_axis',(-1.,0.,0.));
#333=DIRECTION('center_axis',(0.,1.,0.));
#334=DIRECTION('ref_axis',(0.,0.,1.));
#335=DIRECTION('center_axis',(0.,-1.,0.));
#336=DIRECTION('ref_axis',(-1.,0.,0.));
#337=DIRECTION('center_axis',(0.,1.,0.));
#338=DIRECTION('ref_axis',(-1.,0.,0.));
#339=DIRECTION('center_axis',(0.,1.,0.));
#340=DIRECTION('ref_axis',(-1.,0.,0.));
#341=DIRECTION('',(0.,-1.,0.));
#342=DIRECTION('center_axis',(0.,1.,0.));
#343=DIRECTION('ref_axis',(0.,0.,1.));
#344=CARTESIAN_POINT('',(0.,0.,0.));
#345=CARTESIAN_POINT('Origin',(97.0073509136851,0.,-40.1817603983344));
#346=CARTESIAN_POINT('',(103.371311944364,12.,-33.8177993676555));
#347=CARTESIAN_POINT('Origin',(97.0073509136851,12.,-40.1817603983344));
#348=CARTESIAN_POINT('',(103.371311944364,-12.,-33.8177993676555));
#349=CARTESIAN_POINT('',(103.371311944364,0.,-33.8177993676555));
#350=CARTESIAN_POINT('Origin',(97.0073509136851,-12.,-40.1817603983344));
#351=CARTESIAN_POINT('Origin',(97.0073509136851,0.,40.1817603983345));
#352=CARTESIAN_POINT('',(97.0073509136851,12.,49.1817603983345));
#353=CARTESIAN_POINT('Origin',(97.0073509136851,12.,40.1817603983345));
#354=CARTESIAN_POINT('',(97.0073509136851,-12.,49.1817603983345));
#355=CARTESIAN_POINT('',(97.0073509136851,0.,49.1817603983345));
#356=CARTESIAN_POINT('Origin',(97.0073509136851,-12.,40.1817603983345));
#357=CARTESIAN_POINT('Origin',(40.1817603983344,0.,97.0073509136851));
#358=CARTESIAN_POINT('',(33.8177993676555,12.,103.371311944364));
#359=CARTESIAN_POINT('Origin',(40.1817603983344,12.,97.0073509136851));
#360=CARTESIAN_POINT('',(33.8177993676555,-12.,103.371311944364));
#361=CARTESIAN_POINT('',(33.8177993676555,0.,103.371311944364));
#362=CARTESIAN_POINT('Origin',(40.1817603983344,-12.,97.0073509136851));
#363=CARTESIAN_POINT('Origin',(-40.1817603983345,0.,97.0073509136851));
#364=CARTESIAN_POINT('',(-49.1817603983345,12.,97.0073509136851));
#365=CARTESIAN_POINT('Origin',(-40.1817603983345,12.,97.0073509136851));
#366=CARTESIAN_POINT('',(-49.1817603983345,-12.,97.0073509136851));
#367=CARTESIAN_POINT('',(-49.1817603983345,0.,97.0073509136851));
#368=CARTESIAN_POINT('Origin',(-40.1817603983345,-12.,97.0073509136851));
#369=CARTESIAN_POINT('Origin',(-97.0073509136851,0.,40.1817603983344));
#370=CARTESIAN_POINT('',(-103.371311944364,12.,33.8177993676555));
#371=CARTESIAN_POINT('Origin',(-97.0073509136851,12.,40.1817603983344));
#372=CARTESIAN_POINT('',(-103.371311944364,-12.,33.8177993676555));
#373=CARTESIAN_POINT('',(-103.371311944364,0.,33.8177993676555));
#374=CARTESIAN_POINT('Origin',(-97.0073509136851,-12.,40.1817603983344));
#375=CARTESIAN_POINT('Origin',(-97.0073509136851,0.,-40.1817603983344));
#376=CARTESIAN_POINT('',(-97.0073509136851,12.,-49.1817603983344));
#377=CARTESIAN_POINT('Origin',(-97.0073509136851,12.,-40.1817603983344));
#378=CARTESIAN_POINT('',(-97.0073509136851,-12.,-49.1817603983344));
#379=CARTESIAN_POINT('',(-97.0073509136851,0.,-49.1817603983344));
#380=CARTESIAN_POINT('Origin',(-97.0073509136851,-12.,-40.1817603983344));
#381=CARTESIAN_POINT('Origin',(-40.1817603983344,0.,-97.0073509136851));
#382=CARTESIAN_POINT('',(-33.8177993676555,12.,-103.371311944364));
#383=CARTESIAN_POINT('Origin',(-40.1817603983344,12.,-97.0073509136851));
#384=CARTESIAN_POINT('',(-33.8177993676555,-12.,-103.371311944364));
#385=CARTESIAN_POINT('',(-33.8177993676555,0.,-103.371311944364));
#386=CARTESIAN_POINT('Origin',(-40.1817603983344,-12.,-97.0073509136851));
#387=CARTESIAN_POINT('Origin',(40.1817603983344,0.,-97.0073509136851));
#388=CARTESIAN_POINT('',(49.1817603983344,12.,-97.0073509136851));
#389=CARTESIAN_POINT('Origin',(40.1817603983344,12.,-97.0073509136851));
#390=CARTESIAN_POINT('',(49.1817603983344,-12.,-97.0073509136851));
#391=CARTESIAN_POINT('',(49.1817603983344,0.,-97.0073509136851));
#392=CARTESIAN_POINT('Origin',(40.1817603983344,-12.,-97.0073509136851));
#393=CARTESIAN_POINT('Origin',(0.,-12.,0.));
#394=CARTESIAN_POINT('',(125.,-12.,-1.53080849893419E-14));
#395=CARTESIAN_POINT('Origin',(0.,-12.,0.));
#396=CARTESIAN_POINT('Origin',(0.,0.,0.));
#397=CARTESIAN_POINT('',(125.,12.,-1.53080849893419E-14));
#398=CARTESIAN_POINT('Origin',(0.,12.,0.));
#399=CARTESIAN_POINT('',(125.,0.,-1.53080849893419E-14));
#400=CARTESIAN_POINT('Origin',(0.,12.,0.));
#401=UNCERTAINTY_MEASURE_WITH_UNIT(LENGTH_MEASURE(0.01),#405,
'DISTANCE_ACCURACY_VALUE',
'Maximum model space distance between geometric entities at asserted c
onnectivities');
#402=UNCERTAINTY_MEASURE_WITH_UNIT(LENGTH_MEASURE(0.01),#405,
'DISTANCE_ACCURACY_VALUE',
'Maximum model space distance between geometric entities at asserted c
onnectivities');
#403=(
GEOMETRIC_REPRESENTATION_CONTEXT(3)
GLOBAL_UNCERTAINTY_ASSIGNED_CONTEXT((#401))
GLOBAL_UNIT_ASSIGNED_CONTEXT((#405,#407,#408))
REPRESENTATION_CONTEXT('','3D')
);
#404=(
GEOMETRIC_REPRESENTATION_CONTEXT(3)
GLOBAL_UNCERTAINTY_ASSIGNED_CONTEXT((#402))
GLOBAL_UNIT_ASSIGNED_CONTEXT((#405,#407,#408))
REPRESENTATION_CONTEXT('','3D')
);
#405=(
LENGTH_UNIT()
NAMED_UNIT(*)
SI_UNIT(.MILLI.,.METRE.)
);
#406=(
LENGTH_UNIT()
NAMED_UNIT(*)
SI_UNIT(.CENTI.,.METRE.)
);
#407=(
NAMED_UNIT(*)
PLANE_ANGLE_UNIT()
SI_UNIT($,.RADIAN.)
);
#408=(
NAMED_UNIT(*)
SI_UNIT($,.STERADIAN.)
SOLID_ANGLE_UNIT()
);
#409=SHAPE_DEFINITION_REPRESENTATION(#410,#411);
#410=PRODUCT_DEFINITION_SHAPE('',$,#413);
#411=SHAPE_REPRESENTATION('',(#245),#403);
#412=PRODUCT_DEFINITION_CONTEXT('part definition',#417,'design');
#413=PRODUCT_DEFINITION('FCS140','FCS140',#414,#412);
#414=PRODUCT_DEFINITION_FORMATION('0',$,#419);
#415=PRODUCT_RELATED_PRODUCT_CATEGORY('FCS140','FCS140',(#419));
#416=APPLICATION_PROTOCOL_DEFINITION('international standard',
'automotive_design',2009,#417);
#417=APPLICATION_CONTEXT(
'Core Data for Automotive Mechanical Design Process');
#418=PRODUCT_CONTEXT('part definition',#417,'mechanical');
#419=PRODUCT('FCS140','FCS140',
'PP/Steel Blind Flange acc. EN1092-2 PN10/16, \X\D8140/DN125',(#418));
#420=PRESENTATION_STYLE_ASSIGNMENT((#421));
#421=SURFACE_STYLE_USAGE(.BOTH.,#424);
#422=SURFACE_STYLE_RENDERING_WITH_PROPERTIES($,#428,(#423));
#423=SURFACE_STYLE_TRANSPARENT(0.);
#424=SURFACE_SIDE_STYLE('',(#425,#422));
#425=SURFACE_STYLE_FILL_AREA(#426);
#426=FILL_AREA_STYLE('',(#427));
#427=FILL_AREA_STYLE_COLOUR('',#428);
#428=COLOUR_RGB('',0.109803921568627,0.109803921568627,0.129411764705882);
ENDSEC;
END-ISO-10303-21;
