ISO-10303-21;
HEADER;
/* Generated by software containing ST-Developer
 * from STEP Tools, Inc. (www.steptools.com) 
 */

FILE_DESCRIPTION(
/* description */ (
'PP/Steel Blind Flange acc. EN1092-2 PN10/16, Ø250/DN250'),
/* implementation_level */ '2;1');

FILE_NAME(
/* name */ 'FCS250'
/* time_stamp */ '2021-11-10T16:27:22+01:00',
/* author */ ('COAB Solutions'),
/* organization */ ('GPA Flowsystem'),
/* preprocessor_version */ '',
/* originating_system */ 'www.coabsolutions.com',
/* authorisation */ '');

FILE_SCHEMA (('AUTOMOTIVE_DESIGN { 1 0 10303 214 3 1 1 }'));
ENDSEC;

DATA;
#10=MECHANICAL_DESIGN_GEOMETRIC_PRESENTATION_REPRESENTATION('',(#13),#560);
#11=SHAPE_REPRESENTATION_RELATIONSHIP('SRR','None',#567,#12);
#12=ADVANCED_BREP_SHAPE_REPRESENTATION('',(#14),#559);
#13=STYLED_ITEM('',(#576),#14);
#14=MANIFOLD_SOLID_BREP('Solid2',#318);
#15=FACE_BOUND('',#69,.T.);
#16=FACE_BOUND('',#70,.T.);
#17=FACE_BOUND('',#71,.T.);
#18=FACE_BOUND('',#72,.T.);
#19=FACE_BOUND('',#73,.T.);
#20=FACE_BOUND('',#74,.T.);
#21=FACE_BOUND('',#75,.T.);
#22=FACE_BOUND('',#76,.T.);
#23=FACE_BOUND('',#77,.T.);
#24=FACE_BOUND('',#78,.T.);
#25=FACE_BOUND('',#79,.T.);
#26=FACE_BOUND('',#80,.T.);
#27=FACE_BOUND('',#83,.T.);
#28=FACE_BOUND('',#84,.T.);
#29=FACE_BOUND('',#85,.T.);
#30=FACE_BOUND('',#86,.T.);
#31=FACE_BOUND('',#87,.T.);
#32=FACE_BOUND('',#88,.T.);
#33=FACE_BOUND('',#89,.T.);
#34=FACE_BOUND('',#90,.T.);
#35=FACE_BOUND('',#91,.T.);
#36=FACE_BOUND('',#92,.T.);
#37=FACE_BOUND('',#93,.T.);
#38=FACE_BOUND('',#94,.T.);
#39=PLANE('',#374);
#40=PLANE('',#378);
#41=FACE_OUTER_BOUND('',#56,.T.);
#42=FACE_OUTER_BOUND('',#57,.T.);
#43=FACE_OUTER_BOUND('',#58,.T.);
#44=FACE_OUTER_BOUND('',#59,.T.);
#45=FACE_OUTER_BOUND('',#60,.T.);
#46=FACE_OUTER_BOUND('',#61,.T.);
#47=FACE_OUTER_BOUND('',#62,.T.);
#48=FACE_OUTER_BOUND('',#63,.T.);
#49=FACE_OUTER_BOUND('',#64,.T.);
#50=FACE_OUTER_BOUND('',#65,.T.);
#51=FACE_OUTER_BOUND('',#66,.T.);
#52=FACE_OUTER_BOUND('',#67,.T.);
#53=FACE_OUTER_BOUND('',#68,.T.);
#54=FACE_OUTER_BOUND('',#81,.T.);
#55=FACE_OUTER_BOUND('',#82,.T.);
#56=EDGE_LOOP('',(#212,#213,#214,#215));
#57=EDGE_LOOP('',(#216,#217,#218,#219));
#58=EDGE_LOOP('',(#220,#221,#222,#223));
#59=EDGE_LOOP('',(#224,#225,#226,#227));
#60=EDGE_LOOP('',(#228,#229,#230,#231));
#61=EDGE_LOOP('',(#232,#233,#234,#235));
#62=EDGE_LOOP('',(#236,#237,#238,#239));
#63=EDGE_LOOP('',(#240,#241,#242,#243));
#64=EDGE_LOOP('',(#244,#245,#246,#247));
#65=EDGE_LOOP('',(#248,#249,#250,#251));
#66=EDGE_LOOP('',(#252,#253,#254,#255));
#67=EDGE_LOOP('',(#256,#257,#258,#259));
#68=EDGE_LOOP('',(#260));
#69=EDGE_LOOP('',(#261));
#70=EDGE_LOOP('',(#262));
#71=EDGE_LOOP('',(#263));
#72=EDGE_LOOP('',(#264));
#73=EDGE_LOOP('',(#265));
#74=EDGE_LOOP('',(#266));
#75=EDGE_LOOP('',(#267));
#76=EDGE_LOOP('',(#268));
#77=EDGE_LOOP('',(#269));
#78=EDGE_LOOP('',(#270));
#79=EDGE_LOOP('',(#271));
#80=EDGE_LOOP('',(#272));
#81=EDGE_LOOP('',(#273,#274,#275,#276));
#82=EDGE_LOOP('',(#277));
#83=EDGE_LOOP('',(#278));
#84=EDGE_LOOP('',(#279));
#85=EDGE_LOOP('',(#280));
#86=EDGE_LOOP('',(#281));
#87=EDGE_LOOP('',(#282));
#88=EDGE_LOOP('',(#283));
#89=EDGE_LOOP('',(#284));
#90=EDGE_LOOP('',(#285));
#91=EDGE_LOOP('',(#286));
#92=EDGE_LOOP('',(#287));
#93=EDGE_LOOP('',(#288));
#94=EDGE_LOOP('',(#289));
#95=LINE('',#481,#108);
#96=LINE('',#487,#109);
#97=LINE('',#493,#110);
#98=LINE('',#499,#111);
#99=LINE('',#505,#112);
#100=LINE('',#511,#113);
#101=LINE('',#517,#114);
#102=LINE('',#523,#115);
#103=LINE('',#529,#116);
#104=LINE('',#535,#117);
#105=LINE('',#541,#118);
#106=LINE('',#547,#119);
#107=LINE('',#555,#120);
#108=VECTOR('',#385,11.);
#109=VECTOR('',#392,11.);
#110=VECTOR('',#399,11.);
#111=VECTOR('',#406,11.);
#112=VECTOR('',#413,11.);
#113=VECTOR('',#420,11.);
#114=VECTOR('',#427,11.);
#115=VECTOR('',#434,11.);
#116=VECTOR('',#441,11.);
#117=VECTOR('',#448,11.);
#118=VECTOR('',#455,11.);
#119=VECTOR('',#462,11.);
#120=VECTOR('',#473,204.5);
#121=CIRCLE('',#339,11.);
#122=CIRCLE('',#340,11.);
#123=CIRCLE('',#342,11.);
#124=CIRCLE('',#343,11.);
#125=CIRCLE('',#345,11.);
#126=CIRCLE('',#346,11.);
#127=CIRCLE('',#348,11.);
#128=CIRCLE('',#349,11.);
#129=CIRCLE('',#351,11.);
#130=CIRCLE('',#352,11.);
#131=CIRCLE('',#354,11.);
#132=CIRCLE('',#355,11.);
#133=CIRCLE('',#357,11.);
#134=CIRCLE('',#358,11.);
#135=CIRCLE('',#360,11.);
#136=CIRCLE('',#361,11.);
#137=CIRCLE('',#363,11.);
#138=CIRCLE('',#364,11.);
#139=CIRCLE('',#366,11.);
#140=CIRCLE('',#367,11.);
#141=CIRCLE('',#369,11.);
#142=CIRCLE('',#370,11.);
#143=CIRCLE('',#372,11.);
#144=CIRCLE('',#373,11.);
#145=CIRCLE('',#375,204.5);
#146=CIRCLE('',#377,204.5);
#147=VERTEX_POINT('',#478);
#148=VERTEX_POINT('',#480);
#149=VERTEX_POINT('',#484);
#150=VERTEX_POINT('',#486);
#151=VERTEX_POINT('',#490);
#152=VERTEX_POINT('',#492);
#153=VERTEX_POINT('',#496);
#154=VERTEX_POINT('',#498);
#155=VERTEX_POINT('',#502);
#156=VERTEX_POINT('',#504);
#157=VERTEX_POINT('',#508);
#158=VERTEX_POINT('',#510);
#159=VERTEX_POINT('',#514);
#160=VERTEX_POINT('',#516);
#161=VERTEX_POINT('',#520);
#162=VERTEX_POINT('',#522);
#163=VERTEX_POINT('',#526);
#164=VERTEX_POINT('',#528);
#165=VERTEX_POINT('',#532);
#166=VERTEX_POINT('',#534);
#167=VERTEX_POINT('',#538);
#168=VERTEX_POINT('',#540);
#169=VERTEX_POINT('',#544);
#170=VERTEX_POINT('',#546);
#171=VERTEX_POINT('',#550);
#172=VERTEX_POINT('',#553);
#173=EDGE_CURVE('',#147,#147,#121,.T.);
#174=EDGE_CURVE('',#147,#148,#95,.T.);
#175=EDGE_CURVE('',#148,#148,#122,.T.);
#176=EDGE_CURVE('',#149,#149,#123,.T.);
#177=EDGE_CURVE('',#149,#150,#96,.T.);
#178=EDGE_CURVE('',#150,#150,#124,.T.);
#179=EDGE_CURVE('',#151,#151,#125,.T.);
#180=EDGE_CURVE('',#151,#152,#97,.T.);
#181=EDGE_CURVE('',#152,#152,#126,.T.);
#182=EDGE_CURVE('',#153,#153,#127,.T.);
#183=EDGE_CURVE('',#153,#154,#98,.T.);
#184=EDGE_CURVE('',#154,#154,#128,.T.);
#185=EDGE_CURVE('',#155,#155,#129,.T.);
#186=EDGE_CURVE('',#155,#156,#99,.T.);
#187=EDGE_CURVE('',#156,#156,#130,.T.);
#188=EDGE_CURVE('',#157,#157,#131,.T.);
#189=EDGE_CURVE('',#157,#158,#100,.T.);
#190=EDGE_CURVE('',#158,#158,#132,.T.);
#191=EDGE_CURVE('',#159,#159,#133,.T.);
#192=EDGE_CURVE('',#159,#160,#101,.T.);
#193=EDGE_CURVE('',#160,#160,#134,.T.);
#194=EDGE_CURVE('',#161,#161,#135,.T.);
#195=EDGE_CURVE('',#161,#162,#102,.T.);
#196=EDGE_CURVE('',#162,#162,#136,.T.);
#197=EDGE_CURVE('',#163,#163,#137,.T.);
#198=EDGE_CURVE('',#163,#164,#103,.T.);
#199=EDGE_CURVE('',#164,#164,#138,.T.);
#200=EDGE_CURVE('',#165,#165,#139,.T.);
#201=EDGE_CURVE('',#165,#166,#104,.T.);
#202=EDGE_CURVE('',#166,#166,#140,.T.);
#203=EDGE_CURVE('',#167,#167,#141,.T.);
#204=EDGE_CURVE('',#167,#168,#105,.T.);
#205=EDGE_CURVE('',#168,#168,#142,.T.);
#206=EDGE_CURVE('',#169,#169,#143,.T.);
#207=EDGE_CURVE('',#169,#170,#106,.T.);
#208=EDGE_CURVE('',#170,#170,#144,.T.);
#209=EDGE_CURVE('',#171,#171,#145,.T.);
#210=EDGE_CURVE('',#172,#172,#146,.T.);
#211=EDGE_CURVE('',#172,#171,#107,.T.);
#212=ORIENTED_EDGE('',*,*,#173,.F.);
#213=ORIENTED_EDGE('',*,*,#174,.T.);
#214=ORIENTED_EDGE('',*,*,#175,.F.);
#215=ORIENTED_EDGE('',*,*,#174,.F.);
#216=ORIENTED_EDGE('',*,*,#176,.F.);
#217=ORIENTED_EDGE('',*,*,#177,.T.);
#218=ORIENTED_EDGE('',*,*,#178,.F.);
#219=ORIENTED_EDGE('',*,*,#177,.F.);
#220=ORIENTED_EDGE('',*,*,#179,.F.);
#221=ORIENTED_EDGE('',*,*,#180,.T.);
#222=ORIENTED_EDGE('',*,*,#181,.F.);
#223=ORIENTED_EDGE('',*,*,#180,.F.);
#224=ORIENTED_EDGE('',*,*,#182,.F.);
#225=ORIENTED_EDGE('',*,*,#183,.T.);
#226=ORIENTED_EDGE('',*,*,#184,.F.);
#227=ORIENTED_EDGE('',*,*,#183,.F.);
#228=ORIENTED_EDGE('',*,*,#185,.F.);
#229=ORIENTED_EDGE('',*,*,#186,.T.);
#230=ORIENTED_EDGE('',*,*,#187,.F.);
#231=ORIENTED_EDGE('',*,*,#186,.F.);
#232=ORIENTED_EDGE('',*,*,#188,.F.);
#233=ORIENTED_EDGE('',*,*,#189,.T.);
#234=ORIENTED_EDGE('',*,*,#190,.F.);
#235=ORIENTED_EDGE('',*,*,#189,.F.);
#236=ORIENTED_EDGE('',*,*,#191,.F.);
#237=ORIENTED_EDGE('',*,*,#192,.T.);
#238=ORIENTED_EDGE('',*,*,#193,.F.);
#239=ORIENTED_EDGE('',*,*,#192,.F.);
#240=ORIENTED_EDGE('',*,*,#194,.F.);
#241=ORIENTED_EDGE('',*,*,#195,.T.);
#242=ORIENTED_EDGE('',*,*,#196,.F.);
#243=ORIENTED_EDGE('',*,*,#195,.F.);
#244=ORIENTED_EDGE('',*,*,#197,.F.);
#245=ORIENTED_EDGE('',*,*,#198,.T.);
#246=ORIENTED_EDGE('',*,*,#199,.F.);
#247=ORIENTED_EDGE('',*,*,#198,.F.);
#248=ORIENTED_EDGE('',*,*,#200,.F.);
#249=ORIENTED_EDGE('',*,*,#201,.T.);
#250=ORIENTED_EDGE('',*,*,#202,.F.);
#251=ORIENTED_EDGE('',*,*,#201,.F.);
#252=ORIENTED_EDGE('',*,*,#203,.F.);
#253=ORIENTED_EDGE('',*,*,#204,.T.);
#254=ORIENTED_EDGE('',*,*,#205,.F.);
#255=ORIENTED_EDGE('',*,*,#204,.F.);
#256=ORIENTED_EDGE('',*,*,#206,.F.);
#257=ORIENTED_EDGE('',*,*,#207,.T.);
#258=ORIENTED_EDGE('',*,*,#208,.F.);
#259=ORIENTED_EDGE('',*,*,#207,.F.);
#260=ORIENTED_EDGE('',*,*,#209,.T.);
#261=ORIENTED_EDGE('',*,*,#175,.T.);
#262=ORIENTED_EDGE('',*,*,#178,.T.);
#263=ORIENTED_EDGE('',*,*,#181,.T.);
#264=ORIENTED_EDGE('',*,*,#184,.T.);
#265=ORIENTED_EDGE('',*,*,#187,.T.);
#266=ORIENTED_EDGE('',*,*,#190,.T.);
#267=ORIENTED_EDGE('',*,*,#193,.T.);
#268=ORIENTED_EDGE('',*,*,#196,.T.);
#269=ORIENTED_EDGE('',*,*,#199,.T.);
#270=ORIENTED_EDGE('',*,*,#202,.T.);
#271=ORIENTED_EDGE('',*,*,#205,.T.);
#272=ORIENTED_EDGE('',*,*,#208,.T.);
#273=ORIENTED_EDGE('',*,*,#210,.F.);
#274=ORIENTED_EDGE('',*,*,#211,.T.);
#275=ORIENTED_EDGE('',*,*,#209,.F.);
#276=ORIENTED_EDGE('',*,*,#211,.F.);
#277=ORIENTED_EDGE('',*,*,#210,.T.);
#278=ORIENTED_EDGE('',*,*,#173,.T.);
#279=ORIENTED_EDGE('',*,*,#176,.T.);
#280=ORIENTED_EDGE('',*,*,#179,.T.);
#281=ORIENTED_EDGE('',*,*,#182,.T.);
#282=ORIENTED_EDGE('',*,*,#185,.T.);
#283=ORIENTED_EDGE('',*,*,#188,.T.);
#284=ORIENTED_EDGE('',*,*,#191,.T.);
#285=ORIENTED_EDGE('',*,*,#194,.T.);
#286=ORIENTED_EDGE('',*,*,#197,.T.);
#287=ORIENTED_EDGE('',*,*,#200,.T.);
#288=ORIENTED_EDGE('',*,*,#203,.T.);
#289=ORIENTED_EDGE('',*,*,#206,.T.);
#290=CYLINDRICAL_SURFACE('',#338,11.);
#291=CYLINDRICAL_SURFACE('',#341,11.);
#292=CYLINDRICAL_SURFACE('',#344,11.);
#293=CYLINDRICAL_SURFACE('',#347,11.);
#294=CYLINDRICAL_SURFACE('',#350,11.);
#295=CYLINDRICAL_SURFACE('',#353,11.);
#296=CYLINDRICAL_SURFACE('',#356,11.);
#297=CYLINDRICAL_SURFACE('',#359,11.);
#298=CYLINDRICAL_SURFACE('',#362,11.);
#299=CYLINDRICAL_SURFACE('',#365,11.);
#300=CYLINDRICAL_SURFACE('',#368,11.);
#301=CYLINDRICAL_SURFACE('',#371,11.);
#302=CYLINDRICAL_SURFACE('',#376,204.5);
#303=ADVANCED_FACE('',(#41),#290,.F.);
#304=ADVANCED_FACE('',(#42),#291,.F.);
#305=ADVANCED_FACE('',(#43),#292,.F.);
#306=ADVANCED_FACE('',(#44),#293,.F.);
#307=ADVANCED_FACE('',(#45),#294,.F.);
#308=ADVANCED_FACE('',(#46),#295,.F.);
#309=ADVANCED_FACE('',(#47),#296,.F.);
#310=ADVANCED_FACE('',(#48),#297,.F.);
#311=ADVANCED_FACE('',(#49),#298,.F.);
#312=ADVANCED_FACE('',(#50),#299,.F.);
#313=ADVANCED_FACE('',(#51),#300,.F.);
#314=ADVANCED_FACE('',(#52),#301,.F.);
#315=ADVANCED_FACE('',(#53,#15,#16,#17,#18,#19,#20,#21,#22,#23,#24,#25,
#26),#39,.F.);
#316=ADVANCED_FACE('',(#54),#302,.T.);
#317=ADVANCED_FACE('',(#55,#27,#28,#29,#30,#31,#32,#33,#34,#35,#36,#37,
#38),#40,.T.);
#318=CLOSED_SHELL('',(#303,#304,#305,#306,#307,#308,#309,#310,#311,#312,
#313,#314,#315,#316,#317));
#319=DERIVED_UNIT_ELEMENT(#321,1.);
#320=DERIVED_UNIT_ELEMENT(#562,-3.);
#321=(
MASS_UNIT()
NAMED_UNIT(*)
SI_UNIT($,.GRAM.)
);
#322=DERIVED_UNIT((#319,#320));
#323=MEASURE_REPRESENTATION_ITEM('density measure',
POSITIVE_RATIO_MEASURE(1.),#322);
#324=PROPERTY_DEFINITION_REPRESENTATION(#329,#326);
#325=PROPERTY_DEFINITION_REPRESENTATION(#330,#327);
#326=REPRESENTATION('material name',(#328),#559);
#327=REPRESENTATION('density',(#323),#559);
#328=DESCRIPTIVE_REPRESENTATION_ITEM('PP (Black)','PP (Black)');
#329=PROPERTY_DEFINITION('material property','material name',#569);
#330=PROPERTY_DEFINITION('material property','density of part',#569);
#331=DATE_TIME_ROLE('creation_date');
#332=APPLIED_DATE_AND_TIME_ASSIGNMENT(#333,#331,(#569));
#333=DATE_AND_TIME(#334,#335);
#334=CALENDAR_DATE(2021,19,10);
#335=LOCAL_TIME(0,0,0.,#336);
#336=COORDINATED_UNIVERSAL_TIME_OFFSET(0,0,.BEHIND.);
#337=AXIS2_PLACEMENT_3D('placement',#476,#379,#380);
#338=AXIS2_PLACEMENT_3D('',#477,#381,#382);
#339=AXIS2_PLACEMENT_3D('',#479,#383,#384);
#340=AXIS2_PLACEMENT_3D('',#482,#386,#387);
#341=AXIS2_PLACEMENT_3D('',#483,#388,#389);
#342=AXIS2_PLACEMENT_3D('',#485,#390,#391);
#343=AXIS2_PLACEMENT_3D('',#488,#393,#394);
#344=AXIS2_PLACEMENT_3D('',#489,#395,#396);
#345=AXIS2_PLACEMENT_3D('',#491,#397,#398);
#346=AXIS2_PLACEMENT_3D('',#494,#400,#401);
#347=AXIS2_PLACEMENT_3D('',#495,#402,#403);
#348=AXIS2_PLACEMENT_3D('',#497,#404,#405);
#349=AXIS2_PLACEMENT_3D('',#500,#407,#408);
#350=AXIS2_PLACEMENT_3D('',#501,#409,#410);
#351=AXIS2_PLACEMENT_3D('',#503,#411,#412);
#352=AXIS2_PLACEMENT_3D('',#506,#414,#415);
#353=AXIS2_PLACEMENT_3D('',#507,#416,#417);
#354=AXIS2_PLACEMENT_3D('',#509,#418,#419);
#355=AXIS2_PLACEMENT_3D('',#512,#421,#422);
#356=AXIS2_PLACEMENT_3D('',#513,#423,#424);
#357=AXIS2_PLACEMENT_3D('',#515,#425,#426);
#358=AXIS2_PLACEMENT_3D('',#518,#428,#429);
#359=AXIS2_PLACEMENT_3D('',#519,#430,#431);
#360=AXIS2_PLACEMENT_3D('',#521,#432,#433);
#361=AXIS2_PLACEMENT_3D('',#524,#435,#436);
#362=AXIS2_PLACEMENT_3D('',#525,#437,#438);
#363=AXIS2_PLACEMENT_3D('',#527,#439,#440);
#364=AXIS2_PLACEMENT_3D('',#530,#442,#443);
#365=AXIS2_PLACEMENT_3D('',#531,#444,#445);
#366=AXIS2_PLACEMENT_3D('',#533,#446,#447);
#367=AXIS2_PLACEMENT_3D('',#536,#449,#450);
#368=AXIS2_PLACEMENT_3D('',#537,#451,#452);
#369=AXIS2_PLACEMENT_3D('',#539,#453,#454);
#370=AXIS2_PLACEMENT_3D('',#542,#456,#457);
#371=AXIS2_PLACEMENT_3D('',#543,#458,#459);
#372=AXIS2_PLACEMENT_3D('',#545,#460,#461);
#373=AXIS2_PLACEMENT_3D('',#548,#463,#464);
#374=AXIS2_PLACEMENT_3D('',#549,#465,#466);
#375=AXIS2_PLACEMENT_3D('',#551,#467,#468);
#376=AXIS2_PLACEMENT_3D('',#552,#469,#470);
#377=AXIS2_PLACEMENT_3D('',#554,#471,#472);
#378=AXIS2_PLACEMENT_3D('',#556,#474,#475);
#379=DIRECTION('axis',(0.,0.,1.));
#380=DIRECTION('refdir',(1.,0.,0.));
#381=DIRECTION('center_axis',(0.,1.,0.));
#382=DIRECTION('ref_axis',(-0.866025403784438,0.,-0.5));
#383=DIRECTION('center_axis',(0.,-1.,0.));
#384=DIRECTION('ref_axis',(-0.866025403784438,0.,-0.5));
#385=DIRECTION('',(0.,-1.,0.));
#386=DIRECTION('center_axis',(0.,1.,0.));
#387=DIRECTION('ref_axis',(-0.866025403784438,0.,-0.5));
#388=DIRECTION('center_axis',(0.,1.,0.));
#389=DIRECTION('ref_axis',(-0.499999999999999,0.,-0.866025403784439));
#390=DIRECTION('center_axis',(0.,-1.,0.));
#391=DIRECTION('ref_axis',(-0.499999999999999,0.,-0.866025403784439));
#392=DIRECTION('',(0.,-1.,0.));
#393=DIRECTION('center_axis',(0.,1.,0.));
#394=DIRECTION('ref_axis',(-0.499999999999999,0.,-0.866025403784439));
#395=DIRECTION('center_axis',(0.,1.,0.));
#396=DIRECTION('ref_axis',(2.01858731750028E-16,0.,-1.));
#397=DIRECTION('center_axis',(0.,-1.,0.));
#398=DIRECTION('ref_axis',(2.01858731750028E-16,0.,-1.));
#399=DIRECTION('',(0.,-1.,0.));
#400=DIRECTION('center_axis',(0.,1.,0.));
#401=DIRECTION('ref_axis',(2.01858731750028E-16,0.,-1.));
#402=DIRECTION('center_axis',(0.,1.,0.));
#403=DIRECTION('ref_axis',(0.5,0.,-0.866025403784438));
#404=DIRECTION('center_axis',(0.,-1.,0.));
#405=DIRECTION('ref_axis',(0.5,0.,-0.866025403784438));
#406=DIRECTION('',(0.,-1.,0.));
#407=DIRECTION('center_axis',(0.,1.,0.));
#408=DIRECTION('ref_axis',(0.5,0.,-0.866025403784438));
#409=DIRECTION('center_axis',(0.,1.,0.));
#410=DIRECTION('ref_axis',(0.866025403784439,0.,-0.5));
#411=DIRECTION('center_axis',(0.,-1.,0.));
#412=DIRECTION('ref_axis',(0.866025403784439,0.,-0.5));
#413=DIRECTION('',(0.,-1.,0.));
#414=DIRECTION('center_axis',(0.,1.,0.));
#415=DIRECTION('ref_axis',(0.866025403784439,0.,-0.5));
#416=DIRECTION('center_axis',(0.,1.,0.));
#417=DIRECTION('ref_axis',(1.,0.,1.00929365875014E-16));
#418=DIRECTION('center_axis',(0.,-1.,0.));
#419=DIRECTION('ref_axis',(1.,0.,1.00929365875014E-16));
#420=DIRECTION('',(0.,-1.,0.));
#421=DIRECTION('center_axis',(0.,1.,0.));
#422=DIRECTION('ref_axis',(1.,0.,1.00929365875014E-16));
#423=DIRECTION('center_axis',(0.,1.,0.));
#424=DIRECTION('ref_axis',(0.866025403784438,0.,0.5));
#425=DIRECTION('center_axis',(0.,-1.,0.));
#426=DIRECTION('ref_axis',(0.866025403784438,0.,0.5));
#427=DIRECTION('',(0.,-1.,0.));
#428=DIRECTION('center_axis',(0.,1.,0.));
#429=DIRECTION('ref_axis',(0.866025403784438,0.,0.5));
#430=DIRECTION('center_axis',(0.,1.,0.));
#431=DIRECTION('ref_axis',(0.5,0.,0.866025403784439));
#432=DIRECTION('center_axis',(0.,-1.,0.));
#433=DIRECTION('ref_axis',(0.5,0.,0.866025403784439));
#434=DIRECTION('',(0.,-1.,0.));
#435=DIRECTION('center_axis',(0.,1.,0.));
#436=DIRECTION('ref_axis',(0.5,0.,0.866025403784439));
#437=DIRECTION('center_axis',(0.,1.,0.));
#438=DIRECTION('ref_axis',(-5.04646829375071E-17,0.,1.));
#439=DIRECTION('center_axis',(0.,-1.,0.));
#440=DIRECTION('ref_axis',(-5.04646829375071E-17,0.,1.));
#441=DIRECTION('',(0.,-1.,0.));
#442=DIRECTION('center_axis',(0.,1.,0.));
#443=DIRECTION('ref_axis',(-5.04646829375071E-17,0.,1.));
#444=DIRECTION('center_axis',(0.,1.,0.));
#445=DIRECTION('ref_axis',(-0.5,0.,0.866025403784439));
#446=DIRECTION('center_axis',(0.,-1.,0.));
#447=DIRECTION('ref_axis',(-0.5,0.,0.866025403784439));
#448=DIRECTION('',(0.,-1.,0.));
#449=DIRECTION('center_axis',(0.,1.,0.));
#450=DIRECTION('ref_axis',(-0.5,0.,0.866025403784439));
#451=DIRECTION('center_axis',(0.,1.,0.));
#452=DIRECTION('ref_axis',(-0.866025403784439,0.,0.5));
#453=DIRECTION('center_axis',(0.,-1.,0.));
#454=DIRECTION('ref_axis',(-0.866025403784439,0.,0.5));
#455=DIRECTION('',(0.,-1.,0.));
#456=DIRECTION('center_axis',(0.,1.,0.));
#457=DIRECTION('ref_axis',(-0.866025403784439,0.,0.5));
#458=DIRECTION('center_axis',(0.,1.,0.));
#459=DIRECTION('ref_axis',(-1.,0.,0.));
#460=DIRECTION('center_axis',(0.,-1.,0.));
#461=DIRECTION('ref_axis',(-1.,0.,0.));
#462=DIRECTION('',(0.,-1.,0.));
#463=DIRECTION('center_axis',(0.,1.,0.));
#464=DIRECTION('ref_axis',(-1.,0.,0.));
#465=DIRECTION('center_axis',(0.,1.,0.));
#466=DIRECTION('ref_axis',(0.,0.,1.));
#467=DIRECTION('center_axis',(0.,-1.,0.));
#468=DIRECTION('ref_axis',(-1.,0.,0.));
#469=DIRECTION('center_axis',(0.,1.,0.));
#470=DIRECTION('ref_axis',(-1.,0.,0.));
#471=DIRECTION('center_axis',(0.,1.,0.));
#472=DIRECTION('ref_axis',(-1.,0.,0.));
#473=DIRECTION('',(0.,-1.,0.));
#474=DIRECTION('center_axis',(0.,1.,0.));
#475=DIRECTION('ref_axis',(0.,0.,1.));
#476=CARTESIAN_POINT('',(0.,0.,0.));
#477=CARTESIAN_POINT('Origin',(123.743686707646,0.,-123.743686707646));
#478=CARTESIAN_POINT('',(133.269966149275,15.,-118.243686707646));
#479=CARTESIAN_POINT('Origin',(123.743686707646,15.,-123.743686707646));
#480=CARTESIAN_POINT('',(133.269966149275,-15.,-118.243686707646));
#481=CARTESIAN_POINT('',(133.269966149275,0.,-118.243686707646));
#482=CARTESIAN_POINT('Origin',(123.743686707646,-15.,-123.743686707646));
#483=CARTESIAN_POINT('Origin',(169.037019600587,0.,-45.293332892941));
#484=CARTESIAN_POINT('',(174.537019600587,15.,-35.7670534513122));
#485=CARTESIAN_POINT('Origin',(169.037019600587,15.,-45.293332892941));
#486=CARTESIAN_POINT('',(174.537019600587,-15.,-35.7670534513122));
#487=CARTESIAN_POINT('',(174.537019600587,0.,-35.7670534513122));
#488=CARTESIAN_POINT('Origin',(169.037019600587,-15.,-45.293332892941));
#489=CARTESIAN_POINT('Origin',(169.037019600587,0.,45.2933328929411));
#490=CARTESIAN_POINT('',(169.037019600587,15.,56.2933328929412));
#491=CARTESIAN_POINT('Origin',(169.037019600587,15.,45.2933328929411));
#492=CARTESIAN_POINT('',(169.037019600587,-15.,56.2933328929412));
#493=CARTESIAN_POINT('',(169.037019600587,0.,56.2933328929411));
#494=CARTESIAN_POINT('Origin',(169.037019600587,-15.,45.2933328929411));
#495=CARTESIAN_POINT('Origin',(123.743686707646,0.,123.743686707646));
#496=CARTESIAN_POINT('',(118.243686707646,15.,133.269966149275));
#497=CARTESIAN_POINT('Origin',(123.743686707646,15.,123.743686707646));
#498=CARTESIAN_POINT('',(118.243686707646,-15.,133.269966149275));
#499=CARTESIAN_POINT('',(118.243686707646,0.,133.269966149275));
#500=CARTESIAN_POINT('Origin',(123.743686707646,-15.,123.743686707646));
#501=CARTESIAN_POINT('Origin',(45.2933328929411,0.,169.037019600587));
#502=CARTESIAN_POINT('',(35.7670534513123,15.,174.537019600587));
#503=CARTESIAN_POINT('Origin',(45.2933328929411,15.,169.037019600587));
#504=CARTESIAN_POINT('',(35.7670534513123,-15.,174.537019600587));
#505=CARTESIAN_POINT('',(35.7670534513123,0.,174.537019600587));
#506=CARTESIAN_POINT('Origin',(45.2933328929411,-15.,169.037019600587));
#507=CARTESIAN_POINT('Origin',(-45.2933328929411,0.,169.037019600587));
#508=CARTESIAN_POINT('',(-56.2933328929411,15.,169.037019600587));
#509=CARTESIAN_POINT('Origin',(-45.2933328929411,15.,169.037019600587));
#510=CARTESIAN_POINT('',(-56.2933328929411,-15.,169.037019600587));
#511=CARTESIAN_POINT('',(-56.2933328929411,0.,169.037019600587));
#512=CARTESIAN_POINT('Origin',(-45.2933328929411,-15.,169.037019600587));
#513=CARTESIAN_POINT('Origin',(-123.743686707646,0.,123.743686707646));
#514=CARTESIAN_POINT('',(-133.269966149275,15.,118.243686707646));
#515=CARTESIAN_POINT('Origin',(-123.743686707646,15.,123.743686707646));
#516=CARTESIAN_POINT('',(-133.269966149275,-15.,118.243686707646));
#517=CARTESIAN_POINT('',(-133.269966149275,0.,118.243686707646));
#518=CARTESIAN_POINT('Origin',(-123.743686707646,-15.,123.743686707646));
#519=CARTESIAN_POINT('Origin',(-169.037019600587,0.,45.2933328929411));
#520=CARTESIAN_POINT('',(-174.537019600587,15.,35.7670534513123));
#521=CARTESIAN_POINT('Origin',(-169.037019600587,15.,45.2933328929411));
#522=CARTESIAN_POINT('',(-174.537019600587,-15.,35.7670534513123));
#523=CARTESIAN_POINT('',(-174.537019600587,0.,35.7670534513123));
#524=CARTESIAN_POINT('Origin',(-169.037019600587,-15.,45.2933328929411));
#525=CARTESIAN_POINT('Origin',(-169.037019600587,0.,-45.2933328929411));
#526=CARTESIAN_POINT('',(-169.037019600587,15.,-56.2933328929411));
#527=CARTESIAN_POINT('Origin',(-169.037019600587,15.,-45.2933328929411));
#528=CARTESIAN_POINT('',(-169.037019600587,-15.,-56.2933328929411));
#529=CARTESIAN_POINT('',(-169.037019600587,0.,-56.2933328929411));
#530=CARTESIAN_POINT('Origin',(-169.037019600587,-15.,-45.2933328929411));
#531=CARTESIAN_POINT('Origin',(-123.743686707646,0.,-123.743686707646));
#532=CARTESIAN_POINT('',(-118.243686707646,15.,-133.269966149275));
#533=CARTESIAN_POINT('Origin',(-123.743686707646,15.,-123.743686707646));
#534=CARTESIAN_POINT('',(-118.243686707646,-15.,-133.269966149275));
#535=CARTESIAN_POINT('',(-118.243686707646,0.,-133.269966149275));
#536=CARTESIAN_POINT('Origin',(-123.743686707646,-15.,-123.743686707646));
#537=CARTESIAN_POINT('Origin',(-45.2933328929411,0.,-169.037019600587));
#538=CARTESIAN_POINT('',(-35.7670534513123,15.,-174.537019600587));
#539=CARTESIAN_POINT('Origin',(-45.2933328929411,15.,-169.037019600587));
#540=CARTESIAN_POINT('',(-35.7670534513123,-15.,-174.537019600587));
#541=CARTESIAN_POINT('',(-35.7670534513123,0.,-174.537019600587));
#542=CARTESIAN_POINT('Origin',(-45.2933328929411,-15.,-169.037019600587));
#543=CARTESIAN_POINT('Origin',(45.2933328929411,0.,-169.037019600587));
#544=CARTESIAN_POINT('',(56.2933328929411,15.,-169.037019600587));
#545=CARTESIAN_POINT('Origin',(45.2933328929411,15.,-169.037019600587));
#546=CARTESIAN_POINT('',(56.2933328929411,-15.,-169.037019600587));
#547=CARTESIAN_POINT('',(56.2933328929411,0.,-169.037019600587));
#548=CARTESIAN_POINT('Origin',(45.2933328929411,-15.,-169.037019600587));
#549=CARTESIAN_POINT('Origin',(0.,-15.,0.));
#550=CARTESIAN_POINT('',(204.5,-15.,-2.50440270425634E-14));
#551=CARTESIAN_POINT('Origin',(0.,-15.,0.));
#552=CARTESIAN_POINT('Origin',(0.,0.,0.));
#553=CARTESIAN_POINT('',(204.5,15.,-2.50440270425634E-14));
#554=CARTESIAN_POINT('Origin',(0.,15.,0.));
#555=CARTESIAN_POINT('',(204.5,0.,-2.50440270425634E-14));
#556=CARTESIAN_POINT('Origin',(0.,15.,0.));
#557=UNCERTAINTY_MEASURE_WITH_UNIT(LENGTH_MEASURE(0.01),#561,
'DISTANCE_ACCURACY_VALUE',
'Maximum model space distance between geometric entities at asserted c
onnectivities');
#558=UNCERTAINTY_MEASURE_WITH_UNIT(LENGTH_MEASURE(0.01),#561,
'DISTANCE_ACCURACY_VALUE',
'Maximum model space distance between geometric entities at asserted c
onnectivities');
#559=(
GEOMETRIC_REPRESENTATION_CONTEXT(3)
GLOBAL_UNCERTAINTY_ASSIGNED_CONTEXT((#557))
GLOBAL_UNIT_ASSIGNED_CONTEXT((#561,#563,#564))
REPRESENTATION_CONTEXT('','3D')
);
#560=(
GEOMETRIC_REPRESENTATION_CONTEXT(3)
GLOBAL_UNCERTAINTY_ASSIGNED_CONTEXT((#558))
GLOBAL_UNIT_ASSIGNED_CONTEXT((#561,#563,#564))
REPRESENTATION_CONTEXT('','3D')
);
#561=(
LENGTH_UNIT()
NAMED_UNIT(*)
SI_UNIT(.MILLI.,.METRE.)
);
#562=(
LENGTH_UNIT()
NAMED_UNIT(*)
SI_UNIT(.CENTI.,.METRE.)
);
#563=(
NAMED_UNIT(*)
PLANE_ANGLE_UNIT()
SI_UNIT($,.RADIAN.)
);
#564=(
NAMED_UNIT(*)
SI_UNIT($,.STERADIAN.)
SOLID_ANGLE_UNIT()
);
#565=SHAPE_DEFINITION_REPRESENTATION(#566,#567);
#566=PRODUCT_DEFINITION_SHAPE('',$,#569);
#567=SHAPE_REPRESENTATION('',(#337),#559);
#568=PRODUCT_DEFINITION_CONTEXT('part definition',#573,'design');
#569=PRODUCT_DEFINITION('FCS250','FCS250',#570,#568);
#570=PRODUCT_DEFINITION_FORMATION('0',$,#575);
#571=PRODUCT_RELATED_PRODUCT_CATEGORY('FCS250','FCS250',(#575));
#572=APPLICATION_PROTOCOL_DEFINITION('international standard',
'automotive_design',2009,#573);
#573=APPLICATION_CONTEXT(
'Core Data for Automotive Mechanical Design Process');
#574=PRODUCT_CONTEXT('part definition',#573,'mechanical');
#575=PRODUCT('FCS250','FCS250',
'PP/Steel Blind Flange acc. EN1092-2 PN10/16, \X\D8250/DN250',(#574));
#576=PRESENTATION_STYLE_ASSIGNMENT((#577));
#577=SURFACE_STYLE_USAGE(.BOTH.,#580);
#578=SURFACE_STYLE_RENDERING_WITH_PROPERTIES($,#584,(#579));
#579=SURFACE_STYLE_TRANSPARENT(0.);
#580=SURFACE_SIDE_STYLE('',(#581,#578));
#581=SURFACE_STYLE_FILL_AREA(#582);
#582=FILL_AREA_STYLE('',(#583));
#583=FILL_AREA_STYLE_COLOUR('',#584);
#584=COLOUR_RGB('',0.109803921568627,0.109803921568627,0.129411764705882);
ENDSEC;
END-ISO-10303-21;
