ISO-10303-21;
HEADER;
/* Generated by software containing ST-Developer
 * from STEP Tools, Inc. (www.steptools.com) 
 */

FILE_DESCRIPTION(
/* description */ (
'PE100 MULTI-bend 90° with long ends, Ø125, PN10 SDR17'),
/* implementation_level */ '2;1');

FILE_NAME(
/* name */ 
'GDLE17-RC-125',
/* time_stamp */ '2022-07-06T16:11:50+02:00',
/* author */ ('COAB Solutions'),
/* organization */ ('GPA Flowsystem'),
/* preprocessor_version */ 'ST-DEVELOPER v18.1',
/* originating_system */ 'www.coabsolutions.com',
/* authorisation */ '');

FILE_SCHEMA (('AUTOMOTIVE_DESIGN { 1 0 10303 214 3 1 1 }'));
ENDSEC;

DATA;
#10=MECHANICAL_DESIGN_GEOMETRIC_PRESENTATION_REPRESENTATION('',(#13),#253);
#11=SHAPE_REPRESENTATION_RELATIONSHIP('SRR','None',#260,#12);
#12=ADVANCED_BREP_SHAPE_REPRESENTATION('',(#14),#252);
#13=STYLED_ITEM('',(#269),#14);
#14=MANIFOLD_SOLID_BREP('Solid1',#129);
#15=FACE_BOUND('',#36,.T.);
#16=FACE_BOUND('',#38,.T.);
#17=PLANE('',#167);
#18=PLANE('',#168);
#19=TOROIDAL_SURFACE('',#153,126.,55.1);
#20=TOROIDAL_SURFACE('',#162,126.,62.5);
#21=FACE_OUTER_BOUND('',#29,.T.);
#22=FACE_OUTER_BOUND('',#30,.T.);
#23=FACE_OUTER_BOUND('',#31,.T.);
#24=FACE_OUTER_BOUND('',#32,.T.);
#25=FACE_OUTER_BOUND('',#33,.T.);
#26=FACE_OUTER_BOUND('',#34,.T.);
#27=FACE_OUTER_BOUND('',#35,.T.);
#28=FACE_OUTER_BOUND('',#37,.T.);
#29=EDGE_LOOP('',(#85,#86,#87,#88,#89));
#30=EDGE_LOOP('',(#90,#91,#92,#93,#94,#95));
#31=EDGE_LOOP('',(#96,#97,#98,#99,#100));
#32=EDGE_LOOP('',(#101,#102,#103,#104));
#33=EDGE_LOOP('',(#105,#106,#107,#108));
#34=EDGE_LOOP('',(#109,#110,#111,#112));
#35=EDGE_LOOP('',(#113));
#36=EDGE_LOOP('',(#114));
#37=EDGE_LOOP('',(#115));
#38=EDGE_LOOP('',(#116));
#39=LINE('',#221,#43);
#40=LINE('',#233,#44);
#41=LINE('',#238,#45);
#42=LINE('',#246,#46);
#43=VECTOR('',#175,55.1);
#44=VECTOR('',#192,55.1);
#45=VECTOR('',#197,62.5);
#46=VECTOR('',#208,62.5);
#47=CIRCLE('',#150,55.1);
#48=CIRCLE('',#151,55.1);
#49=CIRCLE('',#152,55.1);
#50=CIRCLE('',#154,55.1);
#51=CIRCLE('',#155,55.1);
#52=CIRCLE('',#156,70.9);
#53=CIRCLE('',#158,55.1);
#54=CIRCLE('',#160,62.5);
#55=CIRCLE('',#161,62.5);
#56=CIRCLE('',#163,63.5);
#57=CIRCLE('',#164,62.5);
#58=CIRCLE('',#166,62.5);
#59=VERTEX_POINT('',#217);
#60=VERTEX_POINT('',#218);
#61=VERTEX_POINT('',#220);
#62=VERTEX_POINT('',#225);
#63=VERTEX_POINT('',#226);
#64=VERTEX_POINT('',#231);
#65=VERTEX_POINT('',#235);
#66=VERTEX_POINT('',#237);
#67=VERTEX_POINT('',#241);
#68=VERTEX_POINT('',#245);
#69=EDGE_CURVE('',#59,#60,#47,.T.);
#70=EDGE_CURVE('',#59,#61,#39,.T.);
#71=EDGE_CURVE('',#61,#61,#48,.T.);
#72=EDGE_CURVE('',#60,#59,#49,.T.);
#73=EDGE_CURVE('',#62,#63,#50,.T.);
#74=EDGE_CURVE('',#63,#62,#51,.T.);
#75=EDGE_CURVE('',#63,#60,#52,.T.);
#76=EDGE_CURVE('',#64,#64,#53,.T.);
#77=EDGE_CURVE('',#64,#62,#40,.T.);
#78=EDGE_CURVE('',#65,#65,#54,.T.);
#79=EDGE_CURVE('',#65,#66,#41,.T.);
#80=EDGE_CURVE('',#66,#66,#55,.T.);
#81=EDGE_CURVE('',#66,#67,#56,.T.);
#82=EDGE_CURVE('',#67,#67,#57,.T.);
#83=EDGE_CURVE('',#67,#68,#42,.T.);
#84=EDGE_CURVE('',#68,#68,#58,.T.);
#85=ORIENTED_EDGE('',*,*,#69,.F.);
#86=ORIENTED_EDGE('',*,*,#70,.T.);
#87=ORIENTED_EDGE('',*,*,#71,.F.);
#88=ORIENTED_EDGE('',*,*,#70,.F.);
#89=ORIENTED_EDGE('',*,*,#72,.F.);
#90=ORIENTED_EDGE('',*,*,#73,.F.);
#91=ORIENTED_EDGE('',*,*,#74,.F.);
#92=ORIENTED_EDGE('',*,*,#75,.T.);
#93=ORIENTED_EDGE('',*,*,#72,.T.);
#94=ORIENTED_EDGE('',*,*,#69,.T.);
#95=ORIENTED_EDGE('',*,*,#75,.F.);
#96=ORIENTED_EDGE('',*,*,#76,.F.);
#97=ORIENTED_EDGE('',*,*,#77,.T.);
#98=ORIENTED_EDGE('',*,*,#73,.T.);
#99=ORIENTED_EDGE('',*,*,#74,.T.);
#100=ORIENTED_EDGE('',*,*,#77,.F.);
#101=ORIENTED_EDGE('',*,*,#78,.F.);
#102=ORIENTED_EDGE('',*,*,#79,.T.);
#103=ORIENTED_EDGE('',*,*,#80,.T.);
#104=ORIENTED_EDGE('',*,*,#79,.F.);
#105=ORIENTED_EDGE('',*,*,#80,.F.);
#106=ORIENTED_EDGE('',*,*,#81,.T.);
#107=ORIENTED_EDGE('',*,*,#82,.T.);
#108=ORIENTED_EDGE('',*,*,#81,.F.);
#109=ORIENTED_EDGE('',*,*,#82,.F.);
#110=ORIENTED_EDGE('',*,*,#83,.T.);
#111=ORIENTED_EDGE('',*,*,#84,.T.);
#112=ORIENTED_EDGE('',*,*,#83,.F.);
#113=ORIENTED_EDGE('',*,*,#78,.T.);
#114=ORIENTED_EDGE('',*,*,#71,.T.);
#115=ORIENTED_EDGE('',*,*,#84,.F.);
#116=ORIENTED_EDGE('',*,*,#76,.T.);
#117=CYLINDRICAL_SURFACE('',#149,55.1);
#118=CYLINDRICAL_SURFACE('',#157,55.1);
#119=CYLINDRICAL_SURFACE('',#159,62.5);
#120=CYLINDRICAL_SURFACE('',#165,62.5);
#121=ADVANCED_FACE('',(#21),#117,.F.);
#122=ADVANCED_FACE('',(#22),#19,.F.);
#123=ADVANCED_FACE('',(#23),#118,.F.);
#124=ADVANCED_FACE('',(#24),#119,.T.);
#125=ADVANCED_FACE('',(#25),#20,.T.);
#126=ADVANCED_FACE('',(#26),#120,.T.);
#127=ADVANCED_FACE('',(#27,#15),#17,.T.);
#128=ADVANCED_FACE('',(#28,#16),#18,.F.);
#129=CLOSED_SHELL('',(#121,#122,#123,#124,#125,#126,#127,#128));
#130=DERIVED_UNIT_ELEMENT(#132,1.);
#131=DERIVED_UNIT_ELEMENT(#255,-3.);
#132=(
MASS_UNIT()
NAMED_UNIT(*)
SI_UNIT($,.GRAM.)
);
#133=DERIVED_UNIT((#130,#131));
#134=MEASURE_REPRESENTATION_ITEM('density measure',
POSITIVE_RATIO_MEASURE(1.),#133);
#135=PROPERTY_DEFINITION_REPRESENTATION(#140,#137);
#136=PROPERTY_DEFINITION_REPRESENTATION(#141,#138);
#137=REPRESENTATION('material name',(#139),#252);
#138=REPRESENTATION('density',(#134),#252);
#139=DESCRIPTIVE_REPRESENTATION_ITEM('PE','PE');
#140=PROPERTY_DEFINITION('material property','material name',#262);
#141=PROPERTY_DEFINITION('material property','density of part',#262);
#142=DATE_TIME_ROLE('creation_date');
#143=APPLIED_DATE_AND_TIME_ASSIGNMENT(#144,#142,(#262));
#144=DATE_AND_TIME(#145,#146);
#145=CALENDAR_DATE(2021,19,10);
#146=LOCAL_TIME(0,0,0.,#147);
#147=COORDINATED_UNIVERSAL_TIME_OFFSET(0,0,.BEHIND.);
#148=AXIS2_PLACEMENT_3D('placement',#215,#169,#170);
#149=AXIS2_PLACEMENT_3D('',#216,#171,#172);
#150=AXIS2_PLACEMENT_3D('',#219,#173,#174);
#151=AXIS2_PLACEMENT_3D('',#222,#176,#177);
#152=AXIS2_PLACEMENT_3D('',#223,#178,#179);
#153=AXIS2_PLACEMENT_3D('',#224,#180,#181);
#154=AXIS2_PLACEMENT_3D('',#227,#182,#183);
#155=AXIS2_PLACEMENT_3D('',#228,#184,#185);
#156=AXIS2_PLACEMENT_3D('',#229,#186,#187);
#157=AXIS2_PLACEMENT_3D('',#230,#188,#189);
#158=AXIS2_PLACEMENT_3D('',#232,#190,#191);
#159=AXIS2_PLACEMENT_3D('',#234,#193,#194);
#160=AXIS2_PLACEMENT_3D('',#236,#195,#196);
#161=AXIS2_PLACEMENT_3D('',#239,#198,#199);
#162=AXIS2_PLACEMENT_3D('',#240,#200,#201);
#163=AXIS2_PLACEMENT_3D('',#242,#202,#203);
#164=AXIS2_PLACEMENT_3D('',#243,#204,#205);
#165=AXIS2_PLACEMENT_3D('',#244,#206,#207);
#166=AXIS2_PLACEMENT_3D('',#247,#209,#210);
#167=AXIS2_PLACEMENT_3D('',#248,#211,#212);
#168=AXIS2_PLACEMENT_3D('',#249,#213,#214);
#169=DIRECTION('axis',(0.,0.,1.));
#170=DIRECTION('refdir',(1.,0.,0.));
#171=DIRECTION('center_axis',(1.,3.86164530304402E-16,0.));
#172=DIRECTION('ref_axis',(3.86164530304402E-16,-1.,0.));
#173=DIRECTION('center_axis',(1.,6.12323399573677E-17,0.));
#174=DIRECTION('ref_axis',(6.12323399573677E-17,-1.,0.));
#175=DIRECTION('',(1.,3.86164530304402E-16,0.));
#176=DIRECTION('center_axis',(-1.,-6.12323399573677E-17,0.));
#177=DIRECTION('ref_axis',(3.86164530304402E-16,-1.,0.));
#178=DIRECTION('center_axis',(1.,6.12323399573677E-17,0.));
#179=DIRECTION('ref_axis',(6.12323399573677E-17,-1.,0.));
#180=DIRECTION('center_axis',(0.,0.,-1.));
#181=DIRECTION('ref_axis',(-1.,0.,0.));
#182=DIRECTION('center_axis',(0.,1.,0.));
#183=DIRECTION('ref_axis',(1.,0.,0.));
#184=DIRECTION('center_axis',(0.,1.,0.));
#185=DIRECTION('ref_axis',(1.,0.,0.));
#186=DIRECTION('center_axis',(0.,0.,-1.));
#187=DIRECTION('ref_axis',(-1.,0.,0.));
#188=DIRECTION('center_axis',(0.,1.,0.));
#189=DIRECTION('ref_axis',(1.,0.,0.));
#190=DIRECTION('center_axis',(0.,1.,0.));
#191=DIRECTION('ref_axis',(1.,0.,0.));
#192=DIRECTION('',(0.,1.,0.));
#193=DIRECTION('center_axis',(1.,3.86164530304402E-16,0.));
#194=DIRECTION('ref_axis',(-3.86164530304402E-16,1.,0.));
#195=DIRECTION('center_axis',(1.,6.12323399573677E-17,0.));
#196=DIRECTION('ref_axis',(-6.12323399573677E-17,1.,0.));
#197=DIRECTION('',(-1.,-3.86164530304402E-16,0.));
#198=DIRECTION('center_axis',(1.,6.12323399573677E-17,0.));
#199=DIRECTION('ref_axis',(-6.12323399573677E-17,1.,0.));
#200=DIRECTION('center_axis',(0.,0.,-1.));
#201=DIRECTION('ref_axis',(-1.,0.,0.));
#202=DIRECTION('center_axis',(0.,0.,1.));
#203=DIRECTION('ref_axis',(-1.,0.,0.));
#204=DIRECTION('center_axis',(0.,1.,0.));
#205=DIRECTION('ref_axis',(-1.,0.,0.));
#206=DIRECTION('center_axis',(0.,1.,0.));
#207=DIRECTION('ref_axis',(-1.,0.,0.));
#208=DIRECTION('',(0.,-1.,0.));
#209=DIRECTION('center_axis',(0.,1.,0.));
#210=DIRECTION('ref_axis',(-1.,0.,0.));
#211=DIRECTION('center_axis',(1.,6.12323399573677E-17,0.));
#212=DIRECTION('ref_axis',(0.,0.,1.));
#213=DIRECTION('center_axis',(0.,1.,0.));
#214=DIRECTION('ref_axis',(0.,0.,1.));
#215=CARTESIAN_POINT('',(0.,0.,0.));
#216=CARTESIAN_POINT('Origin',(126.,218.,0.));
#217=CARTESIAN_POINT('',(126.,273.1,6.74780386330192E-15));
#218=CARTESIAN_POINT('',(126.,162.9,6.74780386330192E-15));
#219=CARTESIAN_POINT('Origin',(126.,218.,0.));
#220=CARTESIAN_POINT('',(218.,273.1,6.74780386330192E-15));
#221=CARTESIAN_POINT('',(126.,273.1,6.74780386330192E-15));
#222=CARTESIAN_POINT('Origin',(218.,218.,0.));
#223=CARTESIAN_POINT('Origin',(126.,218.,0.));
#224=CARTESIAN_POINT('Origin',(126.,92.,0.));
#225=CARTESIAN_POINT('',(-55.1,92.,6.74780386330192E-15));
#226=CARTESIAN_POINT('',(55.1,92.,6.74780386330192E-15));
#227=CARTESIAN_POINT('Origin',(0.,92.,0.));
#228=CARTESIAN_POINT('Origin',(0.,92.,0.));
#229=CARTESIAN_POINT('Origin',(126.,92.,6.74780386330192E-15));
#230=CARTESIAN_POINT('Origin',(0.,0.,0.));
#231=CARTESIAN_POINT('',(-55.1,0.,6.74780386330192E-15));
#232=CARTESIAN_POINT('Origin',(0.,0.,0.));
#233=CARTESIAN_POINT('',(-55.1,0.,6.74780386330192E-15));
#234=CARTESIAN_POINT('Origin',(126.,218.,0.));
#235=CARTESIAN_POINT('',(218.,155.5,-7.65404249467096E-15));
#236=CARTESIAN_POINT('Origin',(218.,218.,0.));
#237=CARTESIAN_POINT('',(126.,155.5,-7.65404249467096E-15));
#238=CARTESIAN_POINT('',(126.,155.5,-7.65404249467096E-15));
#239=CARTESIAN_POINT('Origin',(126.,218.,0.));
#240=CARTESIAN_POINT('Origin',(126.,92.,0.));
#241=CARTESIAN_POINT('',(62.5,92.,7.65404249467096E-15));
#242=CARTESIAN_POINT('Origin',(126.,92.,7.65404249467096E-15));
#243=CARTESIAN_POINT('Origin',(0.,92.,0.));
#244=CARTESIAN_POINT('Origin',(0.,0.,0.));
#245=CARTESIAN_POINT('',(62.5,0.,-7.65404249467096E-15));
#246=CARTESIAN_POINT('',(62.5,0.,-7.65404249467096E-15));
#247=CARTESIAN_POINT('Origin',(0.,0.,0.));
#248=CARTESIAN_POINT('Origin',(218.,218.,0.));
#249=CARTESIAN_POINT('Origin',(0.,0.,0.));
#250=UNCERTAINTY_MEASURE_WITH_UNIT(LENGTH_MEASURE(0.01),#254,
'DISTANCE_ACCURACY_VALUE',
'Maximum model space distance between geometric entities at asserted c
onnectivities');
#251=UNCERTAINTY_MEASURE_WITH_UNIT(LENGTH_MEASURE(0.01),#254,
'DISTANCE_ACCURACY_VALUE',
'Maximum model space distance between geometric entities at asserted c
onnectivities');
#252=(
GEOMETRIC_REPRESENTATION_CONTEXT(3)
GLOBAL_UNCERTAINTY_ASSIGNED_CONTEXT((#250))
GLOBAL_UNIT_ASSIGNED_CONTEXT((#254,#256,#257))
REPRESENTATION_CONTEXT('','3D')
);
#253=(
GEOMETRIC_REPRESENTATION_CONTEXT(3)
GLOBAL_UNCERTAINTY_ASSIGNED_CONTEXT((#251))
GLOBAL_UNIT_ASSIGNED_CONTEXT((#254,#256,#257))
REPRESENTATION_CONTEXT('','3D')
);
#254=(
LENGTH_UNIT()
NAMED_UNIT(*)
SI_UNIT(.MILLI.,.METRE.)
);
#255=(
LENGTH_UNIT()
NAMED_UNIT(*)
SI_UNIT(.CENTI.,.METRE.)
);
#256=(
NAMED_UNIT(*)
PLANE_ANGLE_UNIT()
SI_UNIT($,.RADIAN.)
);
#257=(
NAMED_UNIT(*)
SI_UNIT($,.STERADIAN.)
SOLID_ANGLE_UNIT()
);
#258=SHAPE_DEFINITION_REPRESENTATION(#259,#260);
#259=PRODUCT_DEFINITION_SHAPE('',$,#262);
#260=SHAPE_REPRESENTATION('',(#148),#252);
#261=PRODUCT_DEFINITION_CONTEXT('part definition',#266,'design');
#262=PRODUCT_DEFINITION('GDLE17-RC-125','GDLE17-RC-125',#263,#261);
#263=PRODUCT_DEFINITION_FORMATION('0',$,#268);
#264=PRODUCT_RELATED_PRODUCT_CATEGORY('GDLE17-RC-125','GDLE17-RC-125',(#268));
#265=APPLICATION_PROTOCOL_DEFINITION('international standard',
'automotive_design',2009,#266);
#266=APPLICATION_CONTEXT(
'Core Data for Automotive Mechanical Design Process');
#267=PRODUCT_CONTEXT('part definition',#266,'mechanical');
#268=PRODUCT('GDLE17-RC-125','GDLE17-RC-125',
'PE100 MULTI-bend 90\X\B0 with long ends, \X\D8125, PN10 SDR17',(#267));
#269=PRESENTATION_STYLE_ASSIGNMENT((#270));
#270=SURFACE_STYLE_USAGE(.BOTH.,#273);
#271=SURFACE_STYLE_RENDERING_WITH_PROPERTIES($,#277,(#272));
#272=SURFACE_STYLE_TRANSPARENT(0.);
#273=SURFACE_SIDE_STYLE('',(#274,#271));
#274=SURFACE_STYLE_FILL_AREA(#275);
#275=FILL_AREA_STYLE('',(#276));
#276=FILL_AREA_STYLE_COLOUR('',#277);
#277=COLOUR_RGB('',0.109803921568627,0.109803921568627,0.129411764705882);
ENDSEC;
END-ISO-10303-21;
