ISO-10303-21;
HEADER;
/* Generated by software containing ST-Developer
 * from STEP Tools, Inc. (www.steptools.com) 
 */

FILE_DESCRIPTION(
/* description */ ('PE100 Bend 90° with long ends, Ø280, SDR17 PN10'),
/* implementation_level */ '2;1');

FILE_NAME(
/* name */ 
'GEL17-280',
/* time_stamp */ '2022-07-06T16:12:10+02:00',
/* author */ ('COAB Solutions'),
/* organization */ ('GPA Flowsystem'),
/* preprocessor_version */ 'ST-DEVELOPER v18.1',
/* originating_system */ 'www.coabsolutions.com',
/* authorisation */ '');

FILE_SCHEMA (('AUTOMOTIVE_DESIGN { 1 0 10303 214 3 1 1 }'));
ENDSEC;

DATA;
#10=MECHANICAL_DESIGN_GEOMETRIC_PRESENTATION_REPRESENTATION('',(#13),#266);
#11=SHAPE_REPRESENTATION_RELATIONSHIP('SRR','None',#273,#12);
#12=ADVANCED_BREP_SHAPE_REPRESENTATION('',(#14),#265);
#13=STYLED_ITEM('',(#282),#14);
#14=MANIFOLD_SOLID_BREP('Solid2',#124);
#15=(
BOUNDED_SURFACE()
B_SPLINE_SURFACE(2,2,((#230,#231,#232),(#233,#234,#235),(#236,#237,#238),
(#239,#240,#241),(#242,#243,#244),(#245,#246,#247),(#248,#249,#250),(#251,
#252,#253),(#254,#255,#256)),.UNSPECIFIED.,.T.,.F.,.F.)
B_SPLINE_SURFACE_WITH_KNOTS((3,2,2,2,3),(3,3),(-3.14159265358979,-1.5707963267949,
0.,1.5707963267949,3.14159265358979),(0.,1.5707963267949),.UNSPECIFIED.)
GEOMETRIC_REPRESENTATION_ITEM()
RATIONAL_B_SPLINE_SURFACE(((1.,0.707106781186548,1.),(0.707106781186547,
0.5,0.707106781186547),(1.,0.707106781186548,1.),(0.707106781186547,0.5,
0.707106781186547),(1.,0.707106781186548,1.),(0.707106781186547,0.5,0.707106781186547),
(1.,0.707106781186548,1.),(0.707106781186547,0.5,0.707106781186547),(1.,
0.707106781186548,1.)))
REPRESENTATION_ITEM('')
SURFACE()
);
#16=FACE_BOUND('',#34,.T.);
#17=FACE_BOUND('',#38,.T.);
#18=PLANE('',#157);
#19=PLANE('',#161);
#20=TOROIDAL_SURFACE('',#148,140.,123.4);
#21=FACE_OUTER_BOUND('',#29,.T.);
#22=FACE_OUTER_BOUND('',#30,.T.);
#23=FACE_OUTER_BOUND('',#31,.T.);
#24=FACE_OUTER_BOUND('',#32,.T.);
#25=FACE_OUTER_BOUND('',#33,.T.);
#26=FACE_OUTER_BOUND('',#35,.T.);
#27=FACE_OUTER_BOUND('',#36,.T.);
#28=FACE_OUTER_BOUND('',#37,.T.);
#29=EDGE_LOOP('',(#82,#83,#84,#85,#86));
#30=EDGE_LOOP('',(#87,#88,#89,#90,#91,#92));
#31=EDGE_LOOP('',(#93,#94,#95,#96,#97));
#32=EDGE_LOOP('',(#98,#99,#100,#101));
#33=EDGE_LOOP('',(#102));
#34=EDGE_LOOP('',(#103));
#35=EDGE_LOOP('',(#104,#105));
#36=EDGE_LOOP('',(#106,#107,#108,#109));
#37=EDGE_LOOP('',(#110));
#38=EDGE_LOOP('',(#111));
#39=LINE('',#210,#43);
#40=LINE('',#222,#44);
#41=LINE('',#227,#45);
#42=LINE('',#260,#46);
#43=VECTOR('',#168,123.4);
#44=VECTOR('',#185,123.4);
#45=VECTOR('',#190,140.);
#46=VECTOR('',#199,140.);
#47=CIRCLE('',#145,123.4);
#48=CIRCLE('',#146,123.4);
#49=CIRCLE('',#147,123.4);
#50=CIRCLE('',#149,123.4);
#51=CIRCLE('',#150,123.4);
#52=CIRCLE('',#151,16.6);
#53=CIRCLE('',#153,123.4);
#54=CIRCLE('',#155,140.);
#55=CIRCLE('',#156,140.);
#56=CIRCLE('',#158,140.);
#57=CIRCLE('',#160,140.);
#58=VERTEX_POINT('',#206);
#59=VERTEX_POINT('',#207);
#60=VERTEX_POINT('',#209);
#61=VERTEX_POINT('',#214);
#62=VERTEX_POINT('',#215);
#63=VERTEX_POINT('',#220);
#64=VERTEX_POINT('',#224);
#65=VERTEX_POINT('',#226);
#66=VERTEX_POINT('',#259);
#67=EDGE_CURVE('',#58,#59,#47,.T.);
#68=EDGE_CURVE('',#58,#60,#39,.T.);
#69=EDGE_CURVE('',#60,#60,#48,.T.);
#70=EDGE_CURVE('',#59,#58,#49,.T.);
#71=EDGE_CURVE('',#61,#62,#50,.T.);
#72=EDGE_CURVE('',#62,#61,#51,.T.);
#73=EDGE_CURVE('',#62,#59,#52,.T.);
#74=EDGE_CURVE('',#63,#63,#53,.T.);
#75=EDGE_CURVE('',#63,#61,#40,.T.);
#76=EDGE_CURVE('',#64,#64,#54,.T.);
#77=EDGE_CURVE('',#64,#65,#41,.T.);
#78=EDGE_CURVE('',#65,#65,#55,.T.);
#79=EDGE_CURVE('',#65,#65,#56,.T.);
#80=EDGE_CURVE('',#65,#66,#42,.T.);
#81=EDGE_CURVE('',#66,#66,#57,.T.);
#82=ORIENTED_EDGE('',*,*,#67,.F.);
#83=ORIENTED_EDGE('',*,*,#68,.T.);
#84=ORIENTED_EDGE('',*,*,#69,.F.);
#85=ORIENTED_EDGE('',*,*,#68,.F.);
#86=ORIENTED_EDGE('',*,*,#70,.F.);
#87=ORIENTED_EDGE('',*,*,#71,.F.);
#88=ORIENTED_EDGE('',*,*,#72,.F.);
#89=ORIENTED_EDGE('',*,*,#73,.T.);
#90=ORIENTED_EDGE('',*,*,#70,.T.);
#91=ORIENTED_EDGE('',*,*,#67,.T.);
#92=ORIENTED_EDGE('',*,*,#73,.F.);
#93=ORIENTED_EDGE('',*,*,#74,.F.);
#94=ORIENTED_EDGE('',*,*,#75,.T.);
#95=ORIENTED_EDGE('',*,*,#71,.T.);
#96=ORIENTED_EDGE('',*,*,#72,.T.);
#97=ORIENTED_EDGE('',*,*,#75,.F.);
#98=ORIENTED_EDGE('',*,*,#76,.F.);
#99=ORIENTED_EDGE('',*,*,#77,.T.);
#100=ORIENTED_EDGE('',*,*,#78,.T.);
#101=ORIENTED_EDGE('',*,*,#77,.F.);
#102=ORIENTED_EDGE('',*,*,#76,.T.);
#103=ORIENTED_EDGE('',*,*,#69,.T.);
#104=ORIENTED_EDGE('',*,*,#79,.T.);
#105=ORIENTED_EDGE('',*,*,#78,.F.);
#106=ORIENTED_EDGE('',*,*,#79,.F.);
#107=ORIENTED_EDGE('',*,*,#80,.T.);
#108=ORIENTED_EDGE('',*,*,#81,.T.);
#109=ORIENTED_EDGE('',*,*,#80,.F.);
#110=ORIENTED_EDGE('',*,*,#81,.F.);
#111=ORIENTED_EDGE('',*,*,#74,.T.);
#112=CYLINDRICAL_SURFACE('',#144,123.4);
#113=CYLINDRICAL_SURFACE('',#152,123.4);
#114=CYLINDRICAL_SURFACE('',#154,140.);
#115=CYLINDRICAL_SURFACE('',#159,140.);
#116=ADVANCED_FACE('',(#21),#112,.F.);
#117=ADVANCED_FACE('',(#22),#20,.F.);
#118=ADVANCED_FACE('',(#23),#113,.F.);
#119=ADVANCED_FACE('',(#24),#114,.T.);
#120=ADVANCED_FACE('',(#25,#16),#18,.T.);
#121=ADVANCED_FACE('',(#26),#15,.F.);
#122=ADVANCED_FACE('',(#27),#115,.T.);
#123=ADVANCED_FACE('',(#28,#17),#19,.F.);
#124=CLOSED_SHELL('',(#116,#117,#118,#119,#120,#121,#122,#123));
#125=DERIVED_UNIT_ELEMENT(#127,1.);
#126=DERIVED_UNIT_ELEMENT(#268,-3.);
#127=(
MASS_UNIT()
NAMED_UNIT(*)
SI_UNIT($,.GRAM.)
);
#128=DERIVED_UNIT((#125,#126));
#129=MEASURE_REPRESENTATION_ITEM('density measure',
POSITIVE_RATIO_MEASURE(1.),#128);
#130=PROPERTY_DEFINITION_REPRESENTATION(#135,#132);
#131=PROPERTY_DEFINITION_REPRESENTATION(#136,#133);
#132=REPRESENTATION('material name',(#134),#265);
#133=REPRESENTATION('density',(#129),#265);
#134=DESCRIPTIVE_REPRESENTATION_ITEM('PE','PE');
#135=PROPERTY_DEFINITION('material property','material name',#275);
#136=PROPERTY_DEFINITION('material property','density of part',#275);
#137=DATE_TIME_ROLE('creation_date');
#138=APPLIED_DATE_AND_TIME_ASSIGNMENT(#139,#137,(#275));
#139=DATE_AND_TIME(#140,#141);
#140=CALENDAR_DATE(2021,19,10);
#141=LOCAL_TIME(0,0,0.,#142);
#142=COORDINATED_UNIVERSAL_TIME_OFFSET(0,0,.BEHIND.);
#143=AXIS2_PLACEMENT_3D('placement',#204,#162,#163);
#144=AXIS2_PLACEMENT_3D('',#205,#164,#165);
#145=AXIS2_PLACEMENT_3D('',#208,#166,#167);
#146=AXIS2_PLACEMENT_3D('',#211,#169,#170);
#147=AXIS2_PLACEMENT_3D('',#212,#171,#172);
#148=AXIS2_PLACEMENT_3D('',#213,#173,#174);
#149=AXIS2_PLACEMENT_3D('',#216,#175,#176);
#150=AXIS2_PLACEMENT_3D('',#217,#177,#178);
#151=AXIS2_PLACEMENT_3D('',#218,#179,#180);
#152=AXIS2_PLACEMENT_3D('',#219,#181,#182);
#153=AXIS2_PLACEMENT_3D('',#221,#183,#184);
#154=AXIS2_PLACEMENT_3D('',#223,#186,#187);
#155=AXIS2_PLACEMENT_3D('',#225,#188,#189);
#156=AXIS2_PLACEMENT_3D('',#228,#191,#192);
#157=AXIS2_PLACEMENT_3D('',#229,#193,#194);
#158=AXIS2_PLACEMENT_3D('',#257,#195,#196);
#159=AXIS2_PLACEMENT_3D('',#258,#197,#198);
#160=AXIS2_PLACEMENT_3D('',#261,#200,#201);
#161=AXIS2_PLACEMENT_3D('',#262,#202,#203);
#162=DIRECTION('axis',(0.,0.,1.));
#163=DIRECTION('refdir',(1.,0.,0.));
#164=DIRECTION('center_axis',(1.,3.5527136788005E-16,0.));
#165=DIRECTION('ref_axis',(3.5527136788005E-16,-1.,0.));
#166=DIRECTION('center_axis',(1.,2.83276944882399E-16,0.));
#167=DIRECTION('ref_axis',(2.83276944882399E-16,-1.,0.));
#168=DIRECTION('',(1.,3.5527136788005E-16,0.));
#169=DIRECTION('center_axis',(-1.,-2.83276944882399E-16,0.));
#170=DIRECTION('ref_axis',(3.5527136788005E-16,-1.,0.));
#171=DIRECTION('center_axis',(1.,2.83276944882399E-16,0.));
#172=DIRECTION('ref_axis',(2.83276944882399E-16,-1.,0.));
#173=DIRECTION('center_axis',(0.,0.,-1.));
#174=DIRECTION('ref_axis',(-1.,0.,0.));
#175=DIRECTION('center_axis',(0.,1.,0.));
#176=DIRECTION('ref_axis',(1.,0.,0.));
#177=DIRECTION('center_axis',(0.,1.,0.));
#178=DIRECTION('ref_axis',(1.,0.,0.));
#179=DIRECTION('center_axis',(0.,0.,-1.));
#180=DIRECTION('ref_axis',(-1.,0.,0.));
#181=DIRECTION('center_axis',(0.,1.,0.));
#182=DIRECTION('ref_axis',(1.,0.,0.));
#183=DIRECTION('center_axis',(0.,1.,0.));
#184=DIRECTION('ref_axis',(1.,0.,0.));
#185=DIRECTION('',(0.,1.,0.));
#186=DIRECTION('center_axis',(1.,3.5527136788005E-16,0.));
#187=DIRECTION('ref_axis',(-3.5527136788005E-16,1.,0.));
#188=DIRECTION('center_axis',(1.,2.83276944882399E-16,0.));
#189=DIRECTION('ref_axis',(-2.83276944882399E-16,1.,0.));
#190=DIRECTION('',(-1.,-3.5527136788005E-16,0.));
#191=DIRECTION('center_axis',(1.,2.83276944882399E-16,0.));
#192=DIRECTION('ref_axis',(-2.83276944882399E-16,1.,0.));
#193=DIRECTION('center_axis',(1.,2.83276944882399E-16,0.));
#194=DIRECTION('ref_axis',(0.,0.,1.));
#195=DIRECTION('center_axis',(0.,1.,0.));
#196=DIRECTION('ref_axis',(-1.,0.,0.));
#197=DIRECTION('center_axis',(0.,1.,0.));
#198=DIRECTION('ref_axis',(-1.,0.,0.));
#199=DIRECTION('',(0.,-1.,0.));
#200=DIRECTION('center_axis',(0.,1.,0.));
#201=DIRECTION('ref_axis',(-1.,0.,0.));
#202=DIRECTION('center_axis',(0.,1.,0.));
#203=DIRECTION('ref_axis',(0.,0.,1.));
#204=CARTESIAN_POINT('',(0.,0.,0.));
#205=CARTESIAN_POINT('Origin',(140.,340.,0.));
#206=CARTESIAN_POINT('',(140.,463.4,1.51121415014783E-14));
#207=CARTESIAN_POINT('',(140.,216.6,1.51121415014783E-14));
#208=CARTESIAN_POINT('Origin',(140.,340.,0.));
#209=CARTESIAN_POINT('',(340.,463.4,1.51121415014783E-14));
#210=CARTESIAN_POINT('',(140.,463.4,1.51121415014783E-14));
#211=CARTESIAN_POINT('Origin',(340.,340.,0.));
#212=CARTESIAN_POINT('Origin',(140.,340.,0.));
#213=CARTESIAN_POINT('Origin',(140.,200.,0.));
#214=CARTESIAN_POINT('',(-123.4,200.,1.51121415014783E-14));
#215=CARTESIAN_POINT('',(123.4,200.,1.51121415014783E-14));
#216=CARTESIAN_POINT('Origin',(0.,200.,0.));
#217=CARTESIAN_POINT('Origin',(0.,200.,0.));
#218=CARTESIAN_POINT('Origin',(140.,200.,1.51121415014783E-14));
#219=CARTESIAN_POINT('Origin',(0.,0.,0.));
#220=CARTESIAN_POINT('',(-123.4,0.,1.51121415014783E-14));
#221=CARTESIAN_POINT('Origin',(0.,0.,0.));
#222=CARTESIAN_POINT('',(-123.4,0.,1.51121415014783E-14));
#223=CARTESIAN_POINT('Origin',(140.,340.,0.));
#224=CARTESIAN_POINT('',(340.,200.,0.));
#225=CARTESIAN_POINT('Origin',(340.,340.,0.));
#226=CARTESIAN_POINT('',(140.,200.,0.));
#227=CARTESIAN_POINT('',(140.,200.,-1.71450551880629E-14));
#228=CARTESIAN_POINT('Origin',(140.,340.,0.));
#229=CARTESIAN_POINT('Origin',(340.,340.,0.));
#230=CARTESIAN_POINT('Ctrl Pts',(140.,200.,1.71450551880629E-14));
#231=CARTESIAN_POINT('Ctrl Pts',(140.,200.,1.71450551880629E-14));
#232=CARTESIAN_POINT('Ctrl Pts',(140.,200.,1.71450551880629E-14));
#233=CARTESIAN_POINT('Ctrl Pts',(140.,200.,140.));
#234=CARTESIAN_POINT('Ctrl Pts',(140.,200.,140.));
#235=CARTESIAN_POINT('Ctrl Pts',(140.,200.,140.));
#236=CARTESIAN_POINT('Ctrl Pts',(0.,200.,140.));
#237=CARTESIAN_POINT('Ctrl Pts',(5.32907051820075E-14,340.,140.));
#238=CARTESIAN_POINT('Ctrl Pts',(140.,340.,140.));
#239=CARTESIAN_POINT('Ctrl Pts',(-140.,200.,140.));
#240=CARTESIAN_POINT('Ctrl Pts',(-140.,480.,140.));
#241=CARTESIAN_POINT('Ctrl Pts',(140.,480.,140.));
#242=CARTESIAN_POINT('Ctrl Pts',(-140.,200.,0.));
#243=CARTESIAN_POINT('Ctrl Pts',(-140.,480.,0.));
#244=CARTESIAN_POINT('Ctrl Pts',(140.,480.,0.));
#245=CARTESIAN_POINT('Ctrl Pts',(-140.,200.,-140.));
#246=CARTESIAN_POINT('Ctrl Pts',(-140.,480.,-140.));
#247=CARTESIAN_POINT('Ctrl Pts',(140.,480.,-140.));
#248=CARTESIAN_POINT('Ctrl Pts',(0.,200.,-140.));
#249=CARTESIAN_POINT('Ctrl Pts',(5.32907051820075E-14,340.,-140.));
#250=CARTESIAN_POINT('Ctrl Pts',(140.,340.,-140.));
#251=CARTESIAN_POINT('Ctrl Pts',(140.,200.,-140.));
#252=CARTESIAN_POINT('Ctrl Pts',(140.,200.,-140.));
#253=CARTESIAN_POINT('Ctrl Pts',(140.,200.,-140.));
#254=CARTESIAN_POINT('Ctrl Pts',(140.,200.,-1.71450551880629E-14));
#255=CARTESIAN_POINT('Ctrl Pts',(140.,200.,-1.71450551880629E-14));
#256=CARTESIAN_POINT('Ctrl Pts',(140.,200.,-1.71450551880629E-14));
#257=CARTESIAN_POINT('Origin',(0.,200.,0.));
#258=CARTESIAN_POINT('Origin',(0.,0.,0.));
#259=CARTESIAN_POINT('',(140.,0.,-1.71450551880629E-14));
#260=CARTESIAN_POINT('',(140.,0.,-1.71450551880629E-14));
#261=CARTESIAN_POINT('Origin',(0.,0.,0.));
#262=CARTESIAN_POINT('Origin',(0.,0.,0.));
#263=UNCERTAINTY_MEASURE_WITH_UNIT(LENGTH_MEASURE(0.01),#267,
'DISTANCE_ACCURACY_VALUE',
'Maximum model space distance between geometric entities at asserted c
onnectivities');
#264=UNCERTAINTY_MEASURE_WITH_UNIT(LENGTH_MEASURE(0.01),#267,
'DISTANCE_ACCURACY_VALUE',
'Maximum model space distance between geometric entities at asserted c
onnectivities');
#265=(
GEOMETRIC_REPRESENTATION_CONTEXT(3)
GLOBAL_UNCERTAINTY_ASSIGNED_CONTEXT((#263))
GLOBAL_UNIT_ASSIGNED_CONTEXT((#267,#269,#270))
REPRESENTATION_CONTEXT('','3D')
);
#266=(
GEOMETRIC_REPRESENTATION_CONTEXT(3)
GLOBAL_UNCERTAINTY_ASSIGNED_CONTEXT((#264))
GLOBAL_UNIT_ASSIGNED_CONTEXT((#267,#269,#270))
REPRESENTATION_CONTEXT('','3D')
);
#267=(
LENGTH_UNIT()
NAMED_UNIT(*)
SI_UNIT(.MILLI.,.METRE.)
);
#268=(
LENGTH_UNIT()
NAMED_UNIT(*)
SI_UNIT(.CENTI.,.METRE.)
);
#269=(
NAMED_UNIT(*)
PLANE_ANGLE_UNIT()
SI_UNIT($,.RADIAN.)
);
#270=(
NAMED_UNIT(*)
SI_UNIT($,.STERADIAN.)
SOLID_ANGLE_UNIT()
);
#271=SHAPE_DEFINITION_REPRESENTATION(#272,#273);
#272=PRODUCT_DEFINITION_SHAPE('',$,#275);
#273=SHAPE_REPRESENTATION('',(#143),#265);
#274=PRODUCT_DEFINITION_CONTEXT('part definition',#279,'design');
#275=PRODUCT_DEFINITION('GEL17-280','GEL17-280',#276,#274);
#276=PRODUCT_DEFINITION_FORMATION('0',$,#281);
#277=PRODUCT_RELATED_PRODUCT_CATEGORY('GEL17-280','GEL17-280',(#281));
#278=APPLICATION_PROTOCOL_DEFINITION('international standard',
'automotive_design',2009,#279);
#279=APPLICATION_CONTEXT(
'Core Data for Automotive Mechanical Design Process');
#280=PRODUCT_CONTEXT('part definition',#279,'mechanical');
#281=PRODUCT('GEL17-280','GEL17-280',
'PE100 Bend 90\X\B0 with long ends, \X\D8280, SDR17 PN10',(#280));
#282=PRESENTATION_STYLE_ASSIGNMENT((#283));
#283=SURFACE_STYLE_USAGE(.BOTH.,#286);
#284=SURFACE_STYLE_RENDERING_WITH_PROPERTIES($,#290,(#285));
#285=SURFACE_STYLE_TRANSPARENT(0.);
#286=SURFACE_SIDE_STYLE('',(#287,#284));
#287=SURFACE_STYLE_FILL_AREA(#288);
#288=FILL_AREA_STYLE('',(#289));
#289=FILL_AREA_STYLE_COLOUR('',#290);
#290=COLOUR_RGB('',0.109803921568627,0.109803921568627,0.129411764705882);
ENDSEC;
END-ISO-10303-21;
