ISO-10303-21;
HEADER;
/* Generated by software containing ST-Developer
 * from STEP Tools, Inc. (www.steptools.com) 
 */

FILE_DESCRIPTION(
/* description */ ('PE 90\X\B0 Elbow for socket welding, \X\D832, PN16'),

/* implementation_level */ '2;1');

FILE_NAME(
/* name */ 
'GIE-RC-032',
/* time_stamp */ '2023-01-10T10:01:47+01:00',
/* author */ ('COAB Solutions'),
/* organization */ ('GPA Flowsystem'),
/* preprocessor_version */ 'www.coabsolutions.com - creating and organizing all your 3D drawings',
/* originating_system */ 'Autodesk Inventor 2021',
/* authorisation */ '');

FILE_SCHEMA (('AUTOMOTIVE_DESIGN { 1 0 10303 214 3 1 1 }'));
ENDSEC;

DATA;
#10=MECHANICAL_DESIGN_GEOMETRIC_PRESENTATION_REPRESENTATION('',(#13),#306);
#11=SHAPE_REPRESENTATION_RELATIONSHIP('SRR','None',#313,#12);
#12=ADVANCED_BREP_SHAPE_REPRESENTATION('',(#14),#305);
#13=STYLED_ITEM('',(#322),#14);
#14=MANIFOLD_SOLID_BREP('Solid1',#146);
#15=(
BOUNDED_SURFACE()
B_SPLINE_SURFACE(2,2,((#275,#276,#277),(#278,#279,#280),(#281,#282,#283),
(#284,#285,#286),(#287,#288,#289),(#290,#291,#292),(#293,#294,#295),(#296,
#297,#298),(#299,#300,#301)),.UNSPECIFIED.,.F.,.F.,.F.)
B_SPLINE_SURFACE_WITH_KNOTS((3,2,2,2,3),(3,3),(-2.75427605270114,-1.37713802635057,
0.,1.37713802635057,2.75427605270114),(1.5707963267949,3.14159265358979),
 .UNSPECIFIED.)
GEOMETRIC_REPRESENTATION_ITEM()
RATIONAL_B_SPLINE_SURFACE(((1.,0.707106781186548,1.),(0.772156101358357,
0.545996815405062,0.772156101358357),(1.,0.707106781186548,1.),(0.772156101358358,
0.545996815405062,0.772156101358358),(1.,0.707106781186548,1.),(0.772156101358358,
0.545996815405062,0.772156101358358),(1.,0.707106781186548,1.),(0.772156101358357,
0.545996815405062,0.772156101358357),(1.,0.707106781186548,1.)))
REPRESENTATION_ITEM('')
SURFACE()
);
#16=ELLIPSE('',#180,30.5470129472589,21.6);
#17=ELLIPSE('',#182,30.5470129472589,21.6);
#18=TOROIDAL_SURFACE('',#176,20.,14.5);
#19=FACE_BOUND('',#39,.T.);
#20=FACE_BOUND('',#42,.T.);
#21=FACE_BOUND('',#46,.T.);
#22=FACE_BOUND('',#50,.T.);
#23=PLANE('',#169);
#24=PLANE('',#174);
#25=PLANE('',#183);
#26=PLANE('',#187);
#27=FACE_OUTER_BOUND('',#37,.T.);
#28=FACE_OUTER_BOUND('',#38,.T.);
#29=FACE_OUTER_BOUND('',#40,.T.);
#30=FACE_OUTER_BOUND('',#41,.T.);
#31=FACE_OUTER_BOUND('',#43,.T.);
#32=FACE_OUTER_BOUND('',#44,.T.);
#33=FACE_OUTER_BOUND('',#45,.T.);
#34=FACE_OUTER_BOUND('',#47,.T.);
#35=FACE_OUTER_BOUND('',#48,.T.);
#36=FACE_OUTER_BOUND('',#49,.T.);
#37=EDGE_LOOP('',(#98,#99,#100,#101));
#38=EDGE_LOOP('',(#102));
#39=EDGE_LOOP('',(#103));
#40=EDGE_LOOP('',(#104,#105,#106,#107));
#41=EDGE_LOOP('',(#108));
#42=EDGE_LOOP('',(#109));
#43=EDGE_LOOP('',(#110,#111,#112,#113));
#44=EDGE_LOOP('',(#114,#115,#116,#117,#118,#119));
#45=EDGE_LOOP('',(#120));
#46=EDGE_LOOP('',(#121));
#47=EDGE_LOOP('',(#122,#123,#124,#125,#126,#127));
#48=EDGE_LOOP('',(#128,#129));
#49=EDGE_LOOP('',(#130));
#50=EDGE_LOOP('',(#131));
#51=LINE('',#243,#55);
#52=LINE('',#252,#56);
#53=LINE('',#263,#57);
#54=LINE('',#273,#58);
#55=VECTOR('',#194,16.);
#56=VECTOR('',#205,16.);
#57=VECTOR('',#220,21.6);
#58=VECTOR('',#233,21.6);
#59=CIRCLE('',#167,16.);
#60=CIRCLE('',#168,16.);
#61=CIRCLE('',#170,14.5);
#62=CIRCLE('',#172,16.);
#63=CIRCLE('',#173,16.);
#64=CIRCLE('',#175,14.5);
#65=CIRCLE('',#177,5.5);
#66=CIRCLE('',#179,21.6);
#67=CIRCLE('',#181,21.6);
#68=CIRCLE('',#185,21.6);
#69=CIRCLE('',#186,21.6);
#70=VERTEX_POINT('',#240);
#71=VERTEX_POINT('',#242);
#72=VERTEX_POINT('',#246);
#73=VERTEX_POINT('',#249);
#74=VERTEX_POINT('',#251);
#75=VERTEX_POINT('',#255);
#76=VERTEX_POINT('',#260);
#77=VERTEX_POINT('',#262);
#78=VERTEX_POINT('',#264);
#79=VERTEX_POINT('',#266);
#80=VERTEX_POINT('',#272);
#81=EDGE_CURVE('',#70,#70,#59,.T.);
#82=EDGE_CURVE('',#70,#71,#51,.T.);
#83=EDGE_CURVE('',#71,#71,#60,.T.);
#84=EDGE_CURVE('',#72,#72,#61,.T.);
#85=EDGE_CURVE('',#73,#73,#62,.T.);
#86=EDGE_CURVE('',#73,#74,#52,.T.);
#87=EDGE_CURVE('',#74,#74,#63,.T.);
#88=EDGE_CURVE('',#75,#75,#64,.T.);
#89=EDGE_CURVE('',#75,#72,#65,.T.);
#90=EDGE_CURVE('',#76,#76,#66,.T.);
#91=EDGE_CURVE('',#76,#77,#53,.T.);
#92=EDGE_CURVE('',#78,#77,#16,.T.);
#93=EDGE_CURVE('',#78,#79,#67,.T.);
#94=EDGE_CURVE('',#77,#79,#17,.T.);
#95=EDGE_CURVE('',#78,#79,#68,.T.);
#96=EDGE_CURVE('',#77,#80,#54,.T.);
#97=EDGE_CURVE('',#80,#80,#69,.T.);
#98=ORIENTED_EDGE('',*,*,#81,.F.);
#99=ORIENTED_EDGE('',*,*,#82,.T.);
#100=ORIENTED_EDGE('',*,*,#83,.T.);
#101=ORIENTED_EDGE('',*,*,#82,.F.);
#102=ORIENTED_EDGE('',*,*,#83,.F.);
#103=ORIENTED_EDGE('',*,*,#84,.F.);
#104=ORIENTED_EDGE('',*,*,#85,.F.);
#105=ORIENTED_EDGE('',*,*,#86,.T.);
#106=ORIENTED_EDGE('',*,*,#87,.T.);
#107=ORIENTED_EDGE('',*,*,#86,.F.);
#108=ORIENTED_EDGE('',*,*,#87,.F.);
#109=ORIENTED_EDGE('',*,*,#88,.T.);
#110=ORIENTED_EDGE('',*,*,#88,.F.);
#111=ORIENTED_EDGE('',*,*,#89,.T.);
#112=ORIENTED_EDGE('',*,*,#84,.T.);
#113=ORIENTED_EDGE('',*,*,#89,.F.);
#114=ORIENTED_EDGE('',*,*,#90,.F.);
#115=ORIENTED_EDGE('',*,*,#91,.T.);
#116=ORIENTED_EDGE('',*,*,#92,.F.);
#117=ORIENTED_EDGE('',*,*,#93,.T.);
#118=ORIENTED_EDGE('',*,*,#94,.F.);
#119=ORIENTED_EDGE('',*,*,#91,.F.);
#120=ORIENTED_EDGE('',*,*,#90,.T.);
#121=ORIENTED_EDGE('',*,*,#81,.T.);
#122=ORIENTED_EDGE('',*,*,#95,.F.);
#123=ORIENTED_EDGE('',*,*,#92,.T.);
#124=ORIENTED_EDGE('',*,*,#96,.T.);
#125=ORIENTED_EDGE('',*,*,#97,.F.);
#126=ORIENTED_EDGE('',*,*,#96,.F.);
#127=ORIENTED_EDGE('',*,*,#94,.T.);
#128=ORIENTED_EDGE('',*,*,#95,.T.);
#129=ORIENTED_EDGE('',*,*,#93,.F.);
#130=ORIENTED_EDGE('',*,*,#97,.T.);
#131=ORIENTED_EDGE('',*,*,#85,.T.);
#132=CYLINDRICAL_SURFACE('',#166,16.);
#133=CYLINDRICAL_SURFACE('',#171,16.);
#134=CYLINDRICAL_SURFACE('',#178,21.6);
#135=CYLINDRICAL_SURFACE('',#184,21.6);
#136=ADVANCED_FACE('',(#27),#132,.F.);
#137=ADVANCED_FACE('',(#28,#19),#23,.T.);
#138=ADVANCED_FACE('',(#29),#133,.F.);
#139=ADVANCED_FACE('',(#30,#20),#24,.T.);
#140=ADVANCED_FACE('',(#31),#18,.F.);
#141=ADVANCED_FACE('',(#32),#134,.T.);
#142=ADVANCED_FACE('',(#33,#21),#25,.F.);
#143=ADVANCED_FACE('',(#34),#135,.T.);
#144=ADVANCED_FACE('',(#35),#15,.F.);
#145=ADVANCED_FACE('',(#36,#22),#26,.T.);
#146=CLOSED_SHELL('',(#136,#137,#138,#139,#140,#141,#142,#143,#144,#145));
#147=DERIVED_UNIT_ELEMENT(#149,1.);
#148=DERIVED_UNIT_ELEMENT(#308,-3.);
#149=(
MASS_UNIT()
NAMED_UNIT(*)
SI_UNIT($,.GRAM.)
);
#150=DERIVED_UNIT((#147,#148));
#151=MEASURE_REPRESENTATION_ITEM('density measure',
POSITIVE_RATIO_MEASURE(1.),#150);
#152=PROPERTY_DEFINITION_REPRESENTATION(#157,#154);
#153=PROPERTY_DEFINITION_REPRESENTATION(#158,#155);
#154=REPRESENTATION('material name',(#156),#305);
#155=REPRESENTATION('density',(#151),#305);
#156=DESCRIPTIVE_REPRESENTATION_ITEM('PE','PE');
#157=PROPERTY_DEFINITION('material property','material name',#315);
#158=PROPERTY_DEFINITION('material property','density of part',#315);
#159=DATE_TIME_ROLE('creation_date');
#160=APPLIED_DATE_AND_TIME_ASSIGNMENT(#161,#159,(#315));
#161=DATE_AND_TIME(#162,#163);
#162=CALENDAR_DATE(2021,19,10);
#163=LOCAL_TIME(0,0,0.,#164);
#164=COORDINATED_UNIVERSAL_TIME_OFFSET(0,0,.BEHIND.);
#165=AXIS2_PLACEMENT_3D('placement',#238,#188,#189);
#166=AXIS2_PLACEMENT_3D('',#239,#190,#191);
#167=AXIS2_PLACEMENT_3D('',#241,#192,#193);
#168=AXIS2_PLACEMENT_3D('',#244,#195,#196);
#169=AXIS2_PLACEMENT_3D('',#245,#197,#198);
#170=AXIS2_PLACEMENT_3D('',#247,#199,#200);
#171=AXIS2_PLACEMENT_3D('',#248,#201,#202);
#172=AXIS2_PLACEMENT_3D('',#250,#203,#204);
#173=AXIS2_PLACEMENT_3D('',#253,#206,#207);
#174=AXIS2_PLACEMENT_3D('',#254,#208,#209);
#175=AXIS2_PLACEMENT_3D('',#256,#210,#211);
#176=AXIS2_PLACEMENT_3D('',#257,#212,#213);
#177=AXIS2_PLACEMENT_3D('',#258,#214,#215);
#178=AXIS2_PLACEMENT_3D('',#259,#216,#217);
#179=AXIS2_PLACEMENT_3D('',#261,#218,#219);
#180=AXIS2_PLACEMENT_3D('',#265,#221,#222);
#181=AXIS2_PLACEMENT_3D('',#267,#223,#224);
#182=AXIS2_PLACEMENT_3D('',#268,#225,#226);
#183=AXIS2_PLACEMENT_3D('',#269,#227,#228);
#184=AXIS2_PLACEMENT_3D('',#270,#229,#230);
#185=AXIS2_PLACEMENT_3D('',#271,#231,#232);
#186=AXIS2_PLACEMENT_3D('',#274,#234,#235);
#187=AXIS2_PLACEMENT_3D('',#302,#236,#237);
#188=DIRECTION('axis',(0.,0.,1.));
#189=DIRECTION('refdir',(1.,0.,0.));
#190=DIRECTION('center_axis',(0.,1.,0.));
#191=DIRECTION('ref_axis',(1.,0.,0.));
#192=DIRECTION('center_axis',(0.,1.,0.));
#193=DIRECTION('ref_axis',(1.,0.,0.));
#194=DIRECTION('',(0.,1.,0.));
#195=DIRECTION('center_axis',(0.,1.,0.));
#196=DIRECTION('ref_axis',(1.,0.,0.));
#197=DIRECTION('center_axis',(0.,-1.,0.));
#198=DIRECTION('ref_axis',(0.,0.,-1.));
#199=DIRECTION('center_axis',(0.,-1.,0.));
#200=DIRECTION('ref_axis',(1.,0.,0.));
#201=DIRECTION('center_axis',(-1.,0.,0.));
#202=DIRECTION('ref_axis',(0.,0.,-1.));
#203=DIRECTION('center_axis',(-1.,-6.12323399573677E-17,0.));
#204=DIRECTION('ref_axis',(0.,0.,-1.));
#205=DIRECTION('',(-1.,0.,0.));
#206=DIRECTION('center_axis',(-1.,-6.12323399573677E-17,0.));
#207=DIRECTION('ref_axis',(0.,0.,-1.));
#208=DIRECTION('center_axis',(1.,6.12323399573677E-17,0.));
#209=DIRECTION('ref_axis',(0.,0.,-1.));
#210=DIRECTION('center_axis',(-1.,-6.12323399573677E-17,0.));
#211=DIRECTION('ref_axis',(6.12323399573677E-17,-1.,0.));
#212=DIRECTION('center_axis',(0.,0.,1.));
#213=DIRECTION('ref_axis',(1.,0.,0.));
#214=DIRECTION('center_axis',(0.,0.,1.));
#215=DIRECTION('ref_axis',(1.,0.,0.));
#216=DIRECTION('center_axis',(0.,-1.,0.));
#217=DIRECTION('ref_axis',(-1.,0.,0.));
#218=DIRECTION('center_axis',(0.,-1.,0.));
#219=DIRECTION('ref_axis',(-1.,0.,0.));
#220=DIRECTION('',(0.,1.,0.));
#221=DIRECTION('center_axis',(0.707106781186548,0.707106781186547,0.));
#222=DIRECTION('ref_axis',(-0.707106781186547,0.707106781186548,0.));
#223=DIRECTION('center_axis',(0.,-1.,0.));
#224=DIRECTION('ref_axis',(-1.,0.,0.));
#225=DIRECTION('center_axis',(0.707106781186548,0.707106781186547,0.));
#226=DIRECTION('ref_axis',(-0.707106781186547,0.707106781186548,0.));
#227=DIRECTION('center_axis',(0.,1.,0.));
#228=DIRECTION('ref_axis',(0.,0.,-1.));
#229=DIRECTION('center_axis',(-1.,0.,0.));
#230=DIRECTION('ref_axis',(0.,1.,0.));
#231=DIRECTION('center_axis',(-1.,-6.12323399573677E-17,0.));
#232=DIRECTION('ref_axis',(-6.12323399573677E-17,1.,0.));
#233=DIRECTION('',(1.,0.,0.));
#234=DIRECTION('center_axis',(1.,6.12323399573677E-17,0.));
#235=DIRECTION('ref_axis',(-6.12323399573677E-17,1.,0.));
#236=DIRECTION('center_axis',(1.,6.12323399573677E-17,0.));
#237=DIRECTION('ref_axis',(0.,0.,-1.));
#238=CARTESIAN_POINT('',(0.,0.,0.));
#239=CARTESIAN_POINT('Origin',(0.,2.22044604925031E-15,0.));
#240=CARTESIAN_POINT('',(-16.,2.22044604925031E-15,1.95943487863577E-15));
#241=CARTESIAN_POINT('Origin',(0.,2.22044604925031E-15,0.));
#242=CARTESIAN_POINT('',(-16.,19.5,1.95943487863577E-15));
#243=CARTESIAN_POINT('',(-16.,2.22044604925031E-15,1.95943487863577E-15));
#244=CARTESIAN_POINT('Origin',(0.,19.5,0.));
#245=CARTESIAN_POINT('Origin',(0.,19.5,0.));
#246=CARTESIAN_POINT('',(14.5,19.5,-1.77573785876366E-15));
#247=CARTESIAN_POINT('Origin',(-4.44089209850063E-15,19.5,0.));
#248=CARTESIAN_POINT('Origin',(39.5,39.5,0.));
#249=CARTESIAN_POINT('',(39.5,39.5,16.));
#250=CARTESIAN_POINT('Origin',(39.5,39.5,0.));
#251=CARTESIAN_POINT('',(20.,39.5,16.));
#252=CARTESIAN_POINT('',(39.5,39.5,16.));
#253=CARTESIAN_POINT('Origin',(20.,39.5,0.));
#254=CARTESIAN_POINT('Origin',(20.,39.5,0.));
#255=CARTESIAN_POINT('',(20.,25.,-1.77573785876366E-15));
#256=CARTESIAN_POINT('Origin',(20.,39.5,0.));
#257=CARTESIAN_POINT('Origin',(20.,19.5,0.));
#258=CARTESIAN_POINT('Origin',(20.,19.5,-1.77573785876366E-15));
#259=CARTESIAN_POINT('Origin',(4.44089209850063E-15,19.5,0.));
#260=CARTESIAN_POINT('',(21.6,2.22044604925031E-15,2.64523708615828E-15));
#261=CARTESIAN_POINT('Origin',(0.,2.22044604925031E-15,0.));
#262=CARTESIAN_POINT('',(21.6,17.9,2.64523708615828E-15));
#263=CARTESIAN_POINT('',(21.6,19.5,2.64523708615828E-15));
#264=CARTESIAN_POINT('',(20.,19.5,8.15843122174844));
#265=CARTESIAN_POINT('Origin',(4.44089209850063E-15,39.5,0.));
#266=CARTESIAN_POINT('',(20.,19.5,-8.15843122174847));
#267=CARTESIAN_POINT('Origin',(-2.22044604925031E-15,19.5,0.));
#268=CARTESIAN_POINT('Origin',(4.44089209850063E-15,39.5,0.));
#269=CARTESIAN_POINT('Origin',(0.,2.22044604925031E-15,0.));
#270=CARTESIAN_POINT('Origin',(39.5,39.5,0.));
#271=CARTESIAN_POINT('Origin',(20.,39.5,0.));
#272=CARTESIAN_POINT('',(39.5,17.9,2.64523708615828E-15));
#273=CARTESIAN_POINT('',(39.5,17.9,2.64523708615828E-15));
#274=CARTESIAN_POINT('Origin',(39.5,39.5,0.));
#275=CARTESIAN_POINT('Ctrl Pts',(20.,19.5,-8.15843122174846));
#276=CARTESIAN_POINT('Ctrl Pts',(20.,19.5,-8.15843122174846));
#277=CARTESIAN_POINT('Ctrl Pts',(20.,19.5,-8.15843122174846));
#278=CARTESIAN_POINT('Ctrl Pts',(20.,26.2138438763306,-24.6170951335875));
#279=CARTESIAN_POINT('Ctrl Pts',(13.2861561236694,26.2138438763306,-24.6170951335875));
#280=CARTESIAN_POINT('Ctrl Pts',(13.2861561236694,19.5,-24.6170951335875));
#281=CARTESIAN_POINT('Ctrl Pts',(20.,43.6569219381653,-21.1962260791868));
#282=CARTESIAN_POINT('Ctrl Pts',(-4.15692193816531,43.6569219381653,-21.1962260791868));
#283=CARTESIAN_POINT('Ctrl Pts',(-4.15692193816531,19.5,-21.1962260791868));
#284=CARTESIAN_POINT('Ctrl Pts',(20.,61.1,-17.7753570247862));
#285=CARTESIAN_POINT('Ctrl Pts',(-21.6,61.1,-17.7753570247862));
#286=CARTESIAN_POINT('Ctrl Pts',(-21.6,19.5,-17.7753570247862));
#287=CARTESIAN_POINT('Ctrl Pts',(20.,61.1,0.));
#288=CARTESIAN_POINT('Ctrl Pts',(-21.6,61.1,0.));
#289=CARTESIAN_POINT('Ctrl Pts',(-21.6,19.5,0.));
#290=CARTESIAN_POINT('Ctrl Pts',(20.,61.1,17.7753570247862));
#291=CARTESIAN_POINT('Ctrl Pts',(-21.6,61.1,17.7753570247862));
#292=CARTESIAN_POINT('Ctrl Pts',(-21.6,19.5,17.7753570247862));
#293=CARTESIAN_POINT('Ctrl Pts',(20.,43.6569219381653,21.1962260791868));
#294=CARTESIAN_POINT('Ctrl Pts',(-4.15692193816531,43.6569219381653,21.1962260791868));
#295=CARTESIAN_POINT('Ctrl Pts',(-4.15692193816531,19.5,21.1962260791868));
#296=CARTESIAN_POINT('Ctrl Pts',(20.,26.2138438763306,24.6170951335875));
#297=CARTESIAN_POINT('Ctrl Pts',(13.2861561236694,26.2138438763306,24.6170951335875));
#298=CARTESIAN_POINT('Ctrl Pts',(13.2861561236694,19.5,24.6170951335875));
#299=CARTESIAN_POINT('Ctrl Pts',(20.,19.5,8.15843122174846));
#300=CARTESIAN_POINT('Ctrl Pts',(20.,19.5,8.15843122174846));
#301=CARTESIAN_POINT('Ctrl Pts',(20.,19.5,8.15843122174846));
#302=CARTESIAN_POINT('Origin',(39.5,39.5,0.));
#303=UNCERTAINTY_MEASURE_WITH_UNIT(LENGTH_MEASURE(0.01),#307,
'DISTANCE_ACCURACY_VALUE',
'Maximum model space distance between geometric entities at asserted c
onnectivities');
#304=UNCERTAINTY_MEASURE_WITH_UNIT(LENGTH_MEASURE(0.01),#307,
'DISTANCE_ACCURACY_VALUE',
'Maximum model space distance between geometric entities at asserted c
onnectivities');
#305=(
GEOMETRIC_REPRESENTATION_CONTEXT(3)
GLOBAL_UNCERTAINTY_ASSIGNED_CONTEXT((#303))
GLOBAL_UNIT_ASSIGNED_CONTEXT((#307,#309,#310))
REPRESENTATION_CONTEXT('','3D')
);
#306=(
GEOMETRIC_REPRESENTATION_CONTEXT(3)
GLOBAL_UNCERTAINTY_ASSIGNED_CONTEXT((#304))
GLOBAL_UNIT_ASSIGNED_CONTEXT((#307,#309,#310))
REPRESENTATION_CONTEXT('','3D')
);
#307=(
LENGTH_UNIT()
NAMED_UNIT(*)
SI_UNIT(.MILLI.,.METRE.)
);
#308=(
LENGTH_UNIT()
NAMED_UNIT(*)
SI_UNIT(.CENTI.,.METRE.)
);
#309=(
NAMED_UNIT(*)
PLANE_ANGLE_UNIT()
SI_UNIT($,.RADIAN.)
);
#310=(
NAMED_UNIT(*)
SI_UNIT($,.STERADIAN.)
SOLID_ANGLE_UNIT()
);
#311=SHAPE_DEFINITION_REPRESENTATION(#312,#313);
#312=PRODUCT_DEFINITION_SHAPE('',$,#315);
#313=SHAPE_REPRESENTATION('',(#165),#305);
#314=PRODUCT_DEFINITION_CONTEXT('part definition',#319,'design');
#315=PRODUCT_DEFINITION('GIE-RC-032','GIE-RC-032',#316,#314);
#316=PRODUCT_DEFINITION_FORMATION('0',$,#321);
#317=PRODUCT_RELATED_PRODUCT_CATEGORY('GIE-RC-032','GIE-RC-032',(#321));
#318=APPLICATION_PROTOCOL_DEFINITION('international standard',
'automotive_design',2009,#319);
#319=APPLICATION_CONTEXT(
'Core Data for Automotive Mechanical Design Process');
#320=PRODUCT_CONTEXT('part definition',#319,'mechanical');
#321=PRODUCT('GIE-RC-032','GIE-RC-032',
'PE 90\X\B0 Elbow for socket welding, \X\D832, PN16',(#320));
#322=PRESENTATION_STYLE_ASSIGNMENT((#323));
#323=SURFACE_STYLE_USAGE(.BOTH.,#326);
#324=SURFACE_STYLE_RENDERING_WITH_PROPERTIES($,#330,(#325));
#325=SURFACE_STYLE_TRANSPARENT(0.);
#326=SURFACE_SIDE_STYLE('',(#327,#324));
#327=SURFACE_STYLE_FILL_AREA(#328);
#328=FILL_AREA_STYLE('',(#329));
#329=FILL_AREA_STYLE_COLOUR('',#330);
#330=COLOUR_RGB('',0.109803921568627,0.109803921568627,0.129411764705882);
ENDSEC;
END-ISO-10303-21;
