ISO-10303-21;
HEADER;
/* Generated by software containing ST-Developer
 * from STEP Tools, Inc. (www.steptools.com) 
 */

FILE_DESCRIPTION(
/* description */ ('PE100 Bend 45° with long ends, Ø50, SDR11 PN16'),
/* implementation_level */ '2;1');

FILE_NAME(
/* name */ 'HEL11-RC-050'
/* time_stamp */ '2021-10-28T16:21:22+02:00',
/* author */ ('COAB Solutions'),
/* organization */ ('GPA Flowsystem'),
/* preprocessor_version */ '',
/* originating_system */ 'www.coabsolutions.com',
/* authorisation */ '');

FILE_SCHEMA (('AUTOMOTIVE_DESIGN { 1 0 10303 214 3 1 1 }'));
ENDSEC;

DATA;
#10=MECHANICAL_DESIGN_GEOMETRIC_PRESENTATION_REPRESENTATION('',(#13),#286);
#11=SHAPE_REPRESENTATION_RELATIONSHIP('SRR','None',#293,#12);
#12=ADVANCED_BREP_SHAPE_REPRESENTATION('',(#14),#285);
#13=STYLED_ITEM('',(#302),#14);
#14=MANIFOLD_SOLID_BREP('Solid2',#134);
#15=(
BOUNDED_SURFACE()
B_SPLINE_SURFACE(2,2,((#255,#256,#257),(#258,#259,#260),(#261,#262,#263),
(#264,#265,#266),(#267,#268,#269),(#270,#271,#272),(#273,#274,#275),(#276,
#277,#278),(#279,#280,#281)),.UNSPECIFIED.,.F.,.F.,.F.)
B_SPLINE_SURFACE_WITH_KNOTS((3,2,2,2,3),(3,3),(-2.72878985421346,-1.36439492710673,
0.,1.36439492710673,2.72878985421346),(0.,0.785398163397448),
 .UNSPECIFIED.)
GEOMETRIC_REPRESENTATION_ITEM()
RATIONAL_B_SPLINE_SURFACE(((1.,0.923879532511287,1.),(0.776189092721354,
0.717105216123764,0.776189092721354),(1.,0.923879532511287,1.),(0.776189092721352,
0.717105216123763,0.776189092721352),(1.,0.923879532511287,1.),(0.776189092721352,
0.717105216123763,0.776189092721352),(1.,0.923879532511287,1.),(0.776189092721354,
0.717105216123764,0.776189092721354),(1.,0.923879532511287,1.)))
REPRESENTATION_ITEM('')
SURFACE()
);
#16=FACE_BOUND('',#36,.T.);
#17=FACE_BOUND('',#40,.T.);
#18=PLANE('',#169);
#19=PLANE('',#173);
#20=ELLIPSE('',#166,27.0598050073099,25.);
#21=ELLIPSE('',#168,27.0598050073099,25.);
#22=TOROIDAL_SURFACE('',#158,22.9,20.4);
#23=FACE_OUTER_BOUND('',#31,.T.);
#24=FACE_OUTER_BOUND('',#32,.T.);
#25=FACE_OUTER_BOUND('',#33,.T.);
#26=FACE_OUTER_BOUND('',#34,.T.);
#27=FACE_OUTER_BOUND('',#35,.T.);
#28=FACE_OUTER_BOUND('',#37,.T.);
#29=FACE_OUTER_BOUND('',#38,.T.);
#30=FACE_OUTER_BOUND('',#39,.T.);
#31=EDGE_LOOP('',(#88,#89,#90,#91,#92));
#32=EDGE_LOOP('',(#93,#94,#95,#96,#97,#98));
#33=EDGE_LOOP('',(#99,#100,#101,#102,#103));
#34=EDGE_LOOP('',(#104,#105,#106,#107,#108,#109));
#35=EDGE_LOOP('',(#110));
#36=EDGE_LOOP('',(#111));
#37=EDGE_LOOP('',(#112,#113,#114,#115,#116,#117));
#38=EDGE_LOOP('',(#118,#119));
#39=EDGE_LOOP('',(#120));
#40=EDGE_LOOP('',(#121));
#41=LINE('',#226,#45);
#42=LINE('',#238,#46);
#43=LINE('',#243,#47);
#44=LINE('',#253,#48);
#45=VECTOR('',#180,20.4);
#46=VECTOR('',#197,20.4);
#47=VECTOR('',#202,25.);
#48=VECTOR('',#215,25.);
#49=CIRCLE('',#155,20.4);
#50=CIRCLE('',#156,20.4);
#51=CIRCLE('',#157,20.4);
#52=CIRCLE('',#159,20.4);
#53=CIRCLE('',#160,20.4);
#54=CIRCLE('',#161,2.5);
#55=CIRCLE('',#163,20.4);
#56=CIRCLE('',#165,25.);
#57=CIRCLE('',#167,25.);
#58=CIRCLE('',#171,25.);
#59=CIRCLE('',#172,25.);
#60=VERTEX_POINT('',#222);
#61=VERTEX_POINT('',#223);
#62=VERTEX_POINT('',#225);
#63=VERTEX_POINT('',#230);
#64=VERTEX_POINT('',#231);
#65=VERTEX_POINT('',#236);
#66=VERTEX_POINT('',#240);
#67=VERTEX_POINT('',#242);
#68=VERTEX_POINT('',#244);
#69=VERTEX_POINT('',#246);
#70=VERTEX_POINT('',#252);
#71=EDGE_CURVE('',#60,#61,#49,.T.);
#72=EDGE_CURVE('',#60,#62,#41,.T.);
#73=EDGE_CURVE('',#62,#62,#50,.T.);
#74=EDGE_CURVE('',#61,#60,#51,.T.);
#75=EDGE_CURVE('',#63,#64,#52,.T.);
#76=EDGE_CURVE('',#64,#63,#53,.T.);
#77=EDGE_CURVE('',#64,#61,#54,.T.);
#78=EDGE_CURVE('',#65,#65,#55,.T.);
#79=EDGE_CURVE('',#65,#63,#42,.T.);
#80=EDGE_CURVE('',#66,#66,#56,.T.);
#81=EDGE_CURVE('',#66,#67,#43,.T.);
#82=EDGE_CURVE('',#68,#67,#20,.T.);
#83=EDGE_CURVE('',#68,#69,#57,.T.);
#84=EDGE_CURVE('',#67,#69,#21,.T.);
#85=EDGE_CURVE('',#68,#69,#58,.T.);
#86=EDGE_CURVE('',#67,#70,#44,.T.);
#87=EDGE_CURVE('',#70,#70,#59,.T.);
#88=ORIENTED_EDGE('',*,*,#71,.F.);
#89=ORIENTED_EDGE('',*,*,#72,.T.);
#90=ORIENTED_EDGE('',*,*,#73,.F.);
#91=ORIENTED_EDGE('',*,*,#72,.F.);
#92=ORIENTED_EDGE('',*,*,#74,.F.);
#93=ORIENTED_EDGE('',*,*,#75,.F.);
#94=ORIENTED_EDGE('',*,*,#76,.F.);
#95=ORIENTED_EDGE('',*,*,#77,.T.);
#96=ORIENTED_EDGE('',*,*,#74,.T.);
#97=ORIENTED_EDGE('',*,*,#71,.T.);
#98=ORIENTED_EDGE('',*,*,#77,.F.);
#99=ORIENTED_EDGE('',*,*,#78,.F.);
#100=ORIENTED_EDGE('',*,*,#79,.T.);
#101=ORIENTED_EDGE('',*,*,#75,.T.);
#102=ORIENTED_EDGE('',*,*,#76,.T.);
#103=ORIENTED_EDGE('',*,*,#79,.F.);
#104=ORIENTED_EDGE('',*,*,#80,.F.);
#105=ORIENTED_EDGE('',*,*,#81,.T.);
#106=ORIENTED_EDGE('',*,*,#82,.F.);
#107=ORIENTED_EDGE('',*,*,#83,.T.);
#108=ORIENTED_EDGE('',*,*,#84,.F.);
#109=ORIENTED_EDGE('',*,*,#81,.F.);
#110=ORIENTED_EDGE('',*,*,#80,.T.);
#111=ORIENTED_EDGE('',*,*,#73,.T.);
#112=ORIENTED_EDGE('',*,*,#85,.F.);
#113=ORIENTED_EDGE('',*,*,#82,.T.);
#114=ORIENTED_EDGE('',*,*,#86,.T.);
#115=ORIENTED_EDGE('',*,*,#87,.T.);
#116=ORIENTED_EDGE('',*,*,#86,.F.);
#117=ORIENTED_EDGE('',*,*,#84,.T.);
#118=ORIENTED_EDGE('',*,*,#85,.T.);
#119=ORIENTED_EDGE('',*,*,#83,.F.);
#120=ORIENTED_EDGE('',*,*,#87,.F.);
#121=ORIENTED_EDGE('',*,*,#78,.T.);
#122=CYLINDRICAL_SURFACE('',#154,20.4);
#123=CYLINDRICAL_SURFACE('',#162,20.4);
#124=CYLINDRICAL_SURFACE('',#164,25.);
#125=CYLINDRICAL_SURFACE('',#170,25.);
#126=ADVANCED_FACE('',(#23),#122,.F.);
#127=ADVANCED_FACE('',(#24),#22,.F.);
#128=ADVANCED_FACE('',(#25),#123,.F.);
#129=ADVANCED_FACE('',(#26),#124,.T.);
#130=ADVANCED_FACE('',(#27,#16),#18,.T.);
#131=ADVANCED_FACE('',(#28),#125,.T.);
#132=ADVANCED_FACE('',(#29),#15,.F.);
#133=ADVANCED_FACE('',(#30,#17),#19,.F.);
#134=CLOSED_SHELL('',(#126,#127,#128,#129,#130,#131,#132,#133));
#135=DERIVED_UNIT_ELEMENT(#137,1.);
#136=DERIVED_UNIT_ELEMENT(#288,-3.);
#137=(
MASS_UNIT()
NAMED_UNIT(*)
SI_UNIT($,.GRAM.)
);
#138=DERIVED_UNIT((#135,#136));
#139=MEASURE_REPRESENTATION_ITEM('density measure',
POSITIVE_RATIO_MEASURE(1.),#138);
#140=PROPERTY_DEFINITION_REPRESENTATION(#145,#142);
#141=PROPERTY_DEFINITION_REPRESENTATION(#146,#143);
#142=REPRESENTATION('material name',(#144),#285);
#143=REPRESENTATION('density',(#139),#285);
#144=DESCRIPTIVE_REPRESENTATION_ITEM('PE','PE');
#145=PROPERTY_DEFINITION('material property','material name',#295);
#146=PROPERTY_DEFINITION('material property','density of part',#295);
#147=DATE_TIME_ROLE('creation_date');
#148=APPLIED_DATE_AND_TIME_ASSIGNMENT(#149,#147,(#295));
#149=DATE_AND_TIME(#150,#151);
#150=CALENDAR_DATE(2021,19,10);
#151=LOCAL_TIME(0,0,0.,#152);
#152=COORDINATED_UNIVERSAL_TIME_OFFSET(0,0,.BEHIND.);
#153=AXIS2_PLACEMENT_3D('placement',#220,#174,#175);
#154=AXIS2_PLACEMENT_3D('',#221,#176,#177);
#155=AXIS2_PLACEMENT_3D('',#224,#178,#179);
#156=AXIS2_PLACEMENT_3D('',#227,#181,#182);
#157=AXIS2_PLACEMENT_3D('',#228,#183,#184);
#158=AXIS2_PLACEMENT_3D('',#229,#185,#186);
#159=AXIS2_PLACEMENT_3D('',#232,#187,#188);
#160=AXIS2_PLACEMENT_3D('',#233,#189,#190);
#161=AXIS2_PLACEMENT_3D('',#234,#191,#192);
#162=AXIS2_PLACEMENT_3D('',#235,#193,#194);
#163=AXIS2_PLACEMENT_3D('',#237,#195,#196);
#164=AXIS2_PLACEMENT_3D('',#239,#198,#199);
#165=AXIS2_PLACEMENT_3D('',#241,#200,#201);
#166=AXIS2_PLACEMENT_3D('',#245,#203,#204);
#167=AXIS2_PLACEMENT_3D('',#247,#205,#206);
#168=AXIS2_PLACEMENT_3D('',#248,#207,#208);
#169=AXIS2_PLACEMENT_3D('',#249,#209,#210);
#170=AXIS2_PLACEMENT_3D('',#250,#211,#212);
#171=AXIS2_PLACEMENT_3D('',#251,#213,#214);
#172=AXIS2_PLACEMENT_3D('',#254,#216,#217);
#173=AXIS2_PLACEMENT_3D('',#282,#218,#219);
#174=DIRECTION('axis',(0.,0.,1.));
#175=DIRECTION('refdir',(1.,0.,0.));
#176=DIRECTION('center_axis',(0.707106781186548,0.707106781186547,0.));
#177=DIRECTION('ref_axis',(0.707106781186547,-0.707106781186547,0.));
#178=DIRECTION('center_axis',(0.707106781186547,0.707106781186548,0.));
#179=DIRECTION('ref_axis',(0.707106781186548,-0.707106781186547,0.));
#180=DIRECTION('',(0.707106781186548,0.707106781186547,0.));
#181=DIRECTION('center_axis',(-0.707106781186547,-0.707106781186548,0.));
#182=DIRECTION('ref_axis',(0.707106781186547,-0.707106781186547,0.));
#183=DIRECTION('center_axis',(0.707106781186547,0.707106781186548,0.));
#184=DIRECTION('ref_axis',(0.707106781186548,-0.707106781186547,0.));
#185=DIRECTION('center_axis',(0.,0.,-1.));
#186=DIRECTION('ref_axis',(-1.,0.,0.));
#187=DIRECTION('center_axis',(0.,1.,0.));
#188=DIRECTION('ref_axis',(1.,0.,0.));
#189=DIRECTION('center_axis',(0.,1.,0.));
#190=DIRECTION('ref_axis',(1.,0.,0.));
#191=DIRECTION('center_axis',(0.,0.,-1.));
#192=DIRECTION('ref_axis',(-1.,0.,0.));
#193=DIRECTION('center_axis',(0.,1.,0.));
#194=DIRECTION('ref_axis',(1.,0.,0.));
#195=DIRECTION('center_axis',(0.,1.,0.));
#196=DIRECTION('ref_axis',(1.,0.,0.));
#197=DIRECTION('',(0.,1.,0.));
#198=DIRECTION('center_axis',(0.707106781186548,0.707106781186547,0.));
#199=DIRECTION('ref_axis',(-0.707106781186548,0.707106781186547,0.));
#200=DIRECTION('center_axis',(0.707106781186547,0.707106781186548,0.));
#201=DIRECTION('ref_axis',(-0.707106781186548,0.707106781186547,0.));
#202=DIRECTION('',(-0.707106781186548,-0.707106781186547,0.));
#203=DIRECTION('center_axis',(-0.38268343236509,-0.923879532511287,0.));
#204=DIRECTION('ref_axis',(-0.923879532511287,0.38268343236509,0.));
#205=DIRECTION('center_axis',(0.707106781186547,0.707106781186548,0.));
#206=DIRECTION('ref_axis',(-0.707106781186548,0.707106781186547,0.));
#207=DIRECTION('center_axis',(-0.38268343236509,-0.923879532511287,0.));
#208=DIRECTION('ref_axis',(-0.923879532511287,0.38268343236509,0.));
#209=DIRECTION('center_axis',(0.707106781186547,0.707106781186548,0.));
#210=DIRECTION('ref_axis',(0.,0.,1.));
#211=DIRECTION('center_axis',(0.,1.,0.));
#212=DIRECTION('ref_axis',(-1.,0.,0.));
#213=DIRECTION('center_axis',(0.,1.,0.));
#214=DIRECTION('ref_axis',(-1.,0.,0.));
#215=DIRECTION('',(0.,-1.,0.));
#216=DIRECTION('center_axis',(0.,1.,0.));
#217=DIRECTION('ref_axis',(-1.,0.,0.));
#218=DIRECTION('center_axis',(0.,1.,0.));
#219=DIRECTION('ref_axis',(0.,0.,1.));
#220=CARTESIAN_POINT('',(0.,0.,0.));
#221=CARTESIAN_POINT('Origin',(6.70725471082805,73.2072547108281,0.));
#222=CARTESIAN_POINT('',(-7.71772362537752,87.6322330470336,2.4982794702606E-15));
#223=CARTESIAN_POINT('',(21.1322330470336,58.7822763746225,2.4982794702606E-15));
#224=CARTESIAN_POINT('Origin',(6.70725471082805,73.2072547108281,0.));
#225=CARTESIAN_POINT('',(32.5976226126998,127.947579285111,2.4982794702606E-15));
#226=CARTESIAN_POINT('',(-7.71772362537752,87.6322330470336,2.4982794702606E-15));
#227=CARTESIAN_POINT('Origin',(47.0226009489054,113.522600948905,0.));
#228=CARTESIAN_POINT('Origin',(6.70725471082805,73.2072547108281,0.));
#229=CARTESIAN_POINT('Origin',(22.9,57.0145094216561,0.));
#230=CARTESIAN_POINT('',(-20.4,57.0145094216561,2.4982794702606E-15));
#231=CARTESIAN_POINT('',(20.4,57.0145094216561,2.4982794702606E-15));
#232=CARTESIAN_POINT('Origin',(0.,57.0145094216561,0.));
#233=CARTESIAN_POINT('Origin',(0.,57.0145094216561,0.));
#234=CARTESIAN_POINT('Origin',(22.9,57.0145094216561,2.4982794702606E-15));
#235=CARTESIAN_POINT('Origin',(0.,0.,0.));
#236=CARTESIAN_POINT('',(-20.4,0.,2.4982794702606E-15));
#237=CARTESIAN_POINT('Origin',(0.,0.,0.));
#238=CARTESIAN_POINT('',(-20.4,0.,2.4982794702606E-15));
#239=CARTESIAN_POINT('Origin',(6.70725471082805,73.2072547108281,0.));
#240=CARTESIAN_POINT('',(64.7002704785691,95.8449314192417,-3.06161699786838E-15));
#241=CARTESIAN_POINT('Origin',(47.0226009489054,113.522600948905,0.));
#242=CARTESIAN_POINT('',(25.,56.1446609406726,-3.06161699786838E-15));
#243=CARTESIAN_POINT('',(24.3849242404917,55.5295851811644,-3.06161699786838E-15));
#244=CARTESIAN_POINT('',(22.9,57.0145094216561,-10.0294566153905));
#245=CARTESIAN_POINT('Origin',(3.33066907387547E-15,66.5,0.));
#246=CARTESIAN_POINT('',(22.9,57.0145094216561,10.0294566153905));
#247=CARTESIAN_POINT('Origin',(6.70725471082805,73.2072547108281,0.));
#248=CARTESIAN_POINT('Origin',(3.33066907387547E-15,66.5,0.));
#249=CARTESIAN_POINT('Origin',(47.0226009489054,113.522600948905,0.));
#250=CARTESIAN_POINT('Origin',(0.,0.,0.));
#251=CARTESIAN_POINT('Origin',(0.,57.0145094216561,0.));
#252=CARTESIAN_POINT('',(25.,0.,-3.06161699786838E-15));
#253=CARTESIAN_POINT('',(25.,0.,-3.06161699786838E-15));
#254=CARTESIAN_POINT('Origin',(0.,0.,0.));
#255=CARTESIAN_POINT('Ctrl Pts',(22.9,57.0145094216561,10.0294566153905));
#256=CARTESIAN_POINT('Ctrl Pts',(22.9,57.0145094216561,10.0294566153905));
#257=CARTESIAN_POINT('Ctrl Pts',(22.9,57.0145094216561,10.0294566153905));
#258=CARTESIAN_POINT('Ctrl Pts',(14.7530492340404,57.0145094216561,28.6311794898067));
#259=CARTESIAN_POINT('Ctrl Pts',(14.7530492340404,60.3890869209025,28.6311794898067));
#260=CARTESIAN_POINT('Ctrl Pts',(17.139235867397,62.7752735542591,28.6311794898067));
#261=CARTESIAN_POINT('Ctrl Pts',(-5.12347538297979,57.0145094216561,24.4693686064843));
#262=CARTESIAN_POINT('Ctrl Pts',(-5.12347538297979,68.6222129901149,24.4693686064843));
#263=CARTESIAN_POINT('Ctrl Pts',(3.0844105242807,76.8300988973754,24.4693686064843));
#264=CARTESIAN_POINT('Ctrl Pts',(-25.,57.0145094216561,20.3075577231619));
#265=CARTESIAN_POINT('Ctrl Pts',(-25.,76.8553390593274,20.3075577231619));
#266=CARTESIAN_POINT('Ctrl Pts',(-10.9704148188356,90.8849242404918,20.3075577231619));
#267=CARTESIAN_POINT('Ctrl Pts',(-25.,57.0145094216561,0.));
#268=CARTESIAN_POINT('Ctrl Pts',(-25.,76.8553390593274,0.));
#269=CARTESIAN_POINT('Ctrl Pts',(-10.9704148188356,90.8849242404918,0.));
#270=CARTESIAN_POINT('Ctrl Pts',(-25.,57.0145094216561,-20.3075577231619));
#271=CARTESIAN_POINT('Ctrl Pts',(-25.,76.8553390593274,-20.3075577231619));
#272=CARTESIAN_POINT('Ctrl Pts',(-10.9704148188356,90.8849242404918,-20.3075577231619));
#273=CARTESIAN_POINT('Ctrl Pts',(-5.12347538297979,57.0145094216561,-24.4693686064843));
#274=CARTESIAN_POINT('Ctrl Pts',(-5.12347538297979,68.6222129901149,-24.4693686064843));
#275=CARTESIAN_POINT('Ctrl Pts',(3.0844105242807,76.8300988973754,-24.4693686064843));
#276=CARTESIAN_POINT('Ctrl Pts',(14.7530492340404,57.0145094216561,-28.6311794898067));
#277=CARTESIAN_POINT('Ctrl Pts',(14.7530492340404,60.3890869209025,-28.6311794898067));
#278=CARTESIAN_POINT('Ctrl Pts',(17.139235867397,62.7752735542591,-28.6311794898067));
#279=CARTESIAN_POINT('Ctrl Pts',(22.9,57.0145094216561,-10.0294566153905));
#280=CARTESIAN_POINT('Ctrl Pts',(22.9,57.0145094216561,-10.0294566153905));
#281=CARTESIAN_POINT('Ctrl Pts',(22.9,57.0145094216561,-10.0294566153905));
#282=CARTESIAN_POINT('Origin',(0.,0.,0.));
#283=UNCERTAINTY_MEASURE_WITH_UNIT(LENGTH_MEASURE(0.01),#287,
'DISTANCE_ACCURACY_VALUE',
'Maximum model space distance between geometric entities at asserted c
onnectivities');
#284=UNCERTAINTY_MEASURE_WITH_UNIT(LENGTH_MEASURE(0.01),#287,
'DISTANCE_ACCURACY_VALUE',
'Maximum model space distance between geometric entities at asserted c
onnectivities');
#285=(
GEOMETRIC_REPRESENTATION_CONTEXT(3)
GLOBAL_UNCERTAINTY_ASSIGNED_CONTEXT((#283))
GLOBAL_UNIT_ASSIGNED_CONTEXT((#287,#289,#290))
REPRESENTATION_CONTEXT('','3D')
);
#286=(
GEOMETRIC_REPRESENTATION_CONTEXT(3)
GLOBAL_UNCERTAINTY_ASSIGNED_CONTEXT((#284))
GLOBAL_UNIT_ASSIGNED_CONTEXT((#287,#289,#290))
REPRESENTATION_CONTEXT('','3D')
);
#287=(
LENGTH_UNIT()
NAMED_UNIT(*)
SI_UNIT(.MILLI.,.METRE.)
);
#288=(
LENGTH_UNIT()
NAMED_UNIT(*)
SI_UNIT(.CENTI.,.METRE.)
);
#289=(
NAMED_UNIT(*)
PLANE_ANGLE_UNIT()
SI_UNIT($,.RADIAN.)
);
#290=(
NAMED_UNIT(*)
SI_UNIT($,.STERADIAN.)
SOLID_ANGLE_UNIT()
);
#291=SHAPE_DEFINITION_REPRESENTATION(#292,#293);
#292=PRODUCT_DEFINITION_SHAPE('',$,#295);
#293=SHAPE_REPRESENTATION('',(#153),#285);
#294=PRODUCT_DEFINITION_CONTEXT('part definition',#299,'design');
#295=PRODUCT_DEFINITION('HEL11-RC-050','HEL11-RC-050',#296,#294);
#296=PRODUCT_DEFINITION_FORMATION('0',$,#301);
#297=PRODUCT_RELATED_PRODUCT_CATEGORY('HEL11-RC-050','HEL11-RC-050',(#301));
#298=APPLICATION_PROTOCOL_DEFINITION('international standard',
'automotive_design',2009,#299);
#299=APPLICATION_CONTEXT(
'Core Data for Automotive Mechanical Design Process');
#300=PRODUCT_CONTEXT('part definition',#299,'mechanical');
#301=PRODUCT('HEL11-RC-050','HEL11-RC-050',
'PE100 Bend 45\X\B0 with long ends, \X\D850, SDR11 PN16',(#300));
#302=PRESENTATION_STYLE_ASSIGNMENT((#303));
#303=SURFACE_STYLE_USAGE(.BOTH.,#306);
#304=SURFACE_STYLE_RENDERING_WITH_PROPERTIES($,#310,(#305));
#305=SURFACE_STYLE_TRANSPARENT(0.);
#306=SURFACE_SIDE_STYLE('',(#307,#304));
#307=SURFACE_STYLE_FILL_AREA(#308);
#308=FILL_AREA_STYLE('',(#309));
#309=FILL_AREA_STYLE_COLOUR('',#310);
#310=COLOUR_RGB('',0.109803921568627,0.109803921568627,0.129411764705882);
ENDSEC;
END-ISO-10303-21;
