ISO-10303-21;
HEADER;
/* Generated by software containing ST-Developer
 * from STEP Tools, Inc. (www.steptools.com) 
 */

FILE_DESCRIPTION(
/* description */ ('PE 45\X\B0 Elbow for socket welding, \X\D820, PN16'),

/* implementation_level */ '2;1');

FILE_NAME(
/* name */ 
'HIE-RC-020',
/* time_stamp */ '2023-01-10T10:02:01+01:00',
/* author */ ('COAB Solutions'),
/* organization */ ('GPA Flowsystem'),
/* preprocessor_version */ 'www.coabsolutions.com - creating and organizing all your 3D drawings',
/* originating_system */ 'Autodesk Inventor 2021',
/* authorisation */ '');

FILE_SCHEMA (('AUTOMOTIVE_DESIGN { 1 0 10303 214 3 1 1 }'));
ENDSEC;

DATA;
#10=MECHANICAL_DESIGN_GEOMETRIC_PRESENTATION_REPRESENTATION('',(#13),#393);
#11=SHAPE_REPRESENTATION_RELATIONSHIP('SRR','None',#400,#12);
#12=ADVANCED_BREP_SHAPE_REPRESENTATION('',(#14),#392);
#13=STYLED_ITEM('',(#409),#14);
#14=MANIFOLD_SOLID_BREP('Solid1',#184);
#15=(
BOUNDED_SURFACE()
B_SPLINE_SURFACE(2,2,((#325,#326,#327),(#328,#329,#330),(#331,#332,#333),
(#334,#335,#336),(#337,#338,#339),(#340,#341,#342),(#343,#344,#345),(#346,
#347,#348),(#349,#350,#351)),.UNSPECIFIED.,.F.,.F.,.F.)
B_SPLINE_SURFACE_WITH_KNOTS((3,2,2,2,3),(3,3),(-2.66571040392938,-1.33285520196469,
0.,1.33285520196469,2.66571040392938),(2.35619449019235,3.14159265358979),
 .UNSPECIFIED.)
GEOMETRIC_REPRESENTATION_ITEM()
RATIONAL_B_SPLINE_SURFACE(((1.,0.923879532511287,1.),(0.786035069318003,
0.726201712378994,0.786035069318003),(1.,0.923879532511287,1.),(0.786035069318003,
0.726201712378994,0.786035069318003),(1.,0.923879532511287,1.),(0.786035069318003,
0.726201712378994,0.786035069318003),(1.,0.923879532511287,1.),(0.786035069318003,
0.726201712378994,0.786035069318003),(1.,0.923879532511287,1.)))
REPRESENTATION_ITEM('')
SURFACE()
);
#16=(
BOUNDED_SURFACE()
B_SPLINE_SURFACE(2,2,((#368,#369,#370),(#371,#372,#373),(#374,#375,#376),
(#377,#378,#379),(#380,#381,#382),(#383,#384,#385),(#386,#387,#388)),
 .UNSPECIFIED.,.F.,.F.,.F.)
B_SPLINE_SURFACE_WITH_KNOTS((3,2,2,3),(3,3),(-2.14846822754248,-0.716156075847494,
0.716156075847494,2.14846822754248),(2.35619449019235,3.14159265358979),
 .UNSPECIFIED.)
GEOMETRIC_REPRESENTATION_ITEM()
RATIONAL_B_SPLINE_SURFACE(((1.,0.923879532511287,1.),(0.754334793324453,
0.696914476213594,0.754334793324453),(1.,0.923879532511287,1.),(0.754334793324452,
0.696914476213593,0.754334793324452),(1.,0.923879532511287,1.),(0.754334793324453,
0.696914476213594,0.754334793324453),(1.,0.923879532511287,1.)))
REPRESENTATION_ITEM('')
SURFACE()
);
#17=ELLIPSE('',#216,9.74152980263155,9.);
#18=ELLIPSE('',#223,15.8570457342836,14.65);
#19=ELLIPSE('',#225,15.8570457342836,14.65);
#20=FACE_BOUND('',#42,.T.);
#21=FACE_BOUND('',#45,.T.);
#22=FACE_BOUND('',#51,.T.);
#23=FACE_BOUND('',#55,.T.);
#24=PLANE('',#207);
#25=PLANE('',#212);
#26=PLANE('',#226);
#27=PLANE('',#230);
#28=FACE_OUTER_BOUND('',#40,.T.);
#29=FACE_OUTER_BOUND('',#41,.T.);
#30=FACE_OUTER_BOUND('',#43,.T.);
#31=FACE_OUTER_BOUND('',#44,.T.);
#32=FACE_OUTER_BOUND('',#46,.T.);
#33=FACE_OUTER_BOUND('',#47,.T.);
#34=FACE_OUTER_BOUND('',#48,.T.);
#35=FACE_OUTER_BOUND('',#49,.T.);
#36=FACE_OUTER_BOUND('',#50,.T.);
#37=FACE_OUTER_BOUND('',#52,.T.);
#38=FACE_OUTER_BOUND('',#53,.T.);
#39=FACE_OUTER_BOUND('',#54,.T.);
#40=EDGE_LOOP('',(#120,#121,#122,#123));
#41=EDGE_LOOP('',(#124));
#42=EDGE_LOOP('',(#125));
#43=EDGE_LOOP('',(#126,#127,#128,#129));
#44=EDGE_LOOP('',(#130));
#45=EDGE_LOOP('',(#131));
#46=EDGE_LOOP('',(#132,#133,#134,#135,#136,#137));
#47=EDGE_LOOP('',(#138,#139,#140,#141,#142,#143));
#48=EDGE_LOOP('',(#144,#145,#146,#147));
#49=EDGE_LOOP('',(#148,#149,#150,#151,#152,#153));
#50=EDGE_LOOP('',(#154));
#51=EDGE_LOOP('',(#155));
#52=EDGE_LOOP('',(#156,#157,#158,#159,#160,#161));
#53=EDGE_LOOP('',(#162,#163));
#54=EDGE_LOOP('',(#164));
#55=EDGE_LOOP('',(#165));
#56=LINE('',#298,#62);
#57=LINE('',#307,#63);
#58=LINE('',#319,#64);
#59=LINE('',#322,#65);
#60=LINE('',#356,#66);
#61=LINE('',#366,#67);
#62=VECTOR('',#237,10.);
#63=VECTOR('',#248,10.);
#64=VECTOR('',#263,9.);
#65=VECTOR('',#266,9.);
#66=VECTOR('',#275,14.65);
#67=VECTOR('',#288,14.65);
#68=CIRCLE('',#205,10.);
#69=CIRCLE('',#206,10.);
#70=CIRCLE('',#208,9.);
#71=CIRCLE('',#210,10.);
#72=CIRCLE('',#211,10.);
#73=CIRCLE('',#213,9.);
#74=CIRCLE('',#215,9.);
#75=CIRCLE('',#217,9.);
#76=CIRCLE('',#219,9.);
#77=CIRCLE('',#220,9.);
#78=CIRCLE('',#222,14.65);
#79=CIRCLE('',#224,14.65);
#80=CIRCLE('',#228,14.65);
#81=CIRCLE('',#229,14.65);
#82=VERTEX_POINT('',#295);
#83=VERTEX_POINT('',#297);
#84=VERTEX_POINT('',#301);
#85=VERTEX_POINT('',#304);
#86=VERTEX_POINT('',#306);
#87=VERTEX_POINT('',#310);
#88=VERTEX_POINT('',#313);
#89=VERTEX_POINT('',#314);
#90=VERTEX_POINT('',#316);
#91=VERTEX_POINT('',#321);
#92=VERTEX_POINT('',#353);
#93=VERTEX_POINT('',#355);
#94=VERTEX_POINT('',#357);
#95=VERTEX_POINT('',#359);
#96=VERTEX_POINT('',#365);
#97=EDGE_CURVE('',#82,#82,#68,.T.);
#98=EDGE_CURVE('',#82,#83,#56,.T.);
#99=EDGE_CURVE('',#83,#83,#69,.T.);
#100=EDGE_CURVE('',#84,#84,#70,.T.);
#101=EDGE_CURVE('',#85,#85,#71,.T.);
#102=EDGE_CURVE('',#85,#86,#57,.T.);
#103=EDGE_CURVE('',#86,#86,#72,.T.);
#104=EDGE_CURVE('',#87,#87,#73,.T.);
#105=EDGE_CURVE('',#88,#89,#74,.T.);
#106=EDGE_CURVE('',#88,#90,#17,.T.);
#107=EDGE_CURVE('',#89,#90,#75,.T.);
#108=EDGE_CURVE('',#89,#84,#58,.T.);
#109=EDGE_CURVE('',#87,#91,#59,.T.);
#110=EDGE_CURVE('',#91,#90,#76,.T.);
#111=EDGE_CURVE('',#88,#91,#77,.T.);
#112=EDGE_CURVE('',#92,#92,#78,.T.);
#113=EDGE_CURVE('',#92,#93,#60,.T.);
#114=EDGE_CURVE('',#94,#93,#18,.T.);
#115=EDGE_CURVE('',#94,#95,#79,.T.);
#116=EDGE_CURVE('',#93,#95,#19,.T.);
#117=EDGE_CURVE('',#94,#95,#80,.T.);
#118=EDGE_CURVE('',#93,#96,#61,.T.);
#119=EDGE_CURVE('',#96,#96,#81,.T.);
#120=ORIENTED_EDGE('',*,*,#97,.F.);
#121=ORIENTED_EDGE('',*,*,#98,.T.);
#122=ORIENTED_EDGE('',*,*,#99,.T.);
#123=ORIENTED_EDGE('',*,*,#98,.F.);
#124=ORIENTED_EDGE('',*,*,#99,.F.);
#125=ORIENTED_EDGE('',*,*,#100,.F.);
#126=ORIENTED_EDGE('',*,*,#101,.F.);
#127=ORIENTED_EDGE('',*,*,#102,.T.);
#128=ORIENTED_EDGE('',*,*,#103,.T.);
#129=ORIENTED_EDGE('',*,*,#102,.F.);
#130=ORIENTED_EDGE('',*,*,#103,.F.);
#131=ORIENTED_EDGE('',*,*,#104,.F.);
#132=ORIENTED_EDGE('',*,*,#105,.F.);
#133=ORIENTED_EDGE('',*,*,#106,.T.);
#134=ORIENTED_EDGE('',*,*,#107,.F.);
#135=ORIENTED_EDGE('',*,*,#108,.T.);
#136=ORIENTED_EDGE('',*,*,#100,.T.);
#137=ORIENTED_EDGE('',*,*,#108,.F.);
#138=ORIENTED_EDGE('',*,*,#104,.T.);
#139=ORIENTED_EDGE('',*,*,#109,.T.);
#140=ORIENTED_EDGE('',*,*,#110,.T.);
#141=ORIENTED_EDGE('',*,*,#106,.F.);
#142=ORIENTED_EDGE('',*,*,#111,.T.);
#143=ORIENTED_EDGE('',*,*,#109,.F.);
#144=ORIENTED_EDGE('',*,*,#111,.F.);
#145=ORIENTED_EDGE('',*,*,#105,.T.);
#146=ORIENTED_EDGE('',*,*,#107,.T.);
#147=ORIENTED_EDGE('',*,*,#110,.F.);
#148=ORIENTED_EDGE('',*,*,#112,.F.);
#149=ORIENTED_EDGE('',*,*,#113,.T.);
#150=ORIENTED_EDGE('',*,*,#114,.F.);
#151=ORIENTED_EDGE('',*,*,#115,.T.);
#152=ORIENTED_EDGE('',*,*,#116,.F.);
#153=ORIENTED_EDGE('',*,*,#113,.F.);
#154=ORIENTED_EDGE('',*,*,#112,.T.);
#155=ORIENTED_EDGE('',*,*,#97,.T.);
#156=ORIENTED_EDGE('',*,*,#117,.F.);
#157=ORIENTED_EDGE('',*,*,#114,.T.);
#158=ORIENTED_EDGE('',*,*,#118,.T.);
#159=ORIENTED_EDGE('',*,*,#119,.F.);
#160=ORIENTED_EDGE('',*,*,#118,.F.);
#161=ORIENTED_EDGE('',*,*,#116,.T.);
#162=ORIENTED_EDGE('',*,*,#117,.T.);
#163=ORIENTED_EDGE('',*,*,#115,.F.);
#164=ORIENTED_EDGE('',*,*,#119,.T.);
#165=ORIENTED_EDGE('',*,*,#101,.T.);
#166=CYLINDRICAL_SURFACE('',#204,10.);
#167=CYLINDRICAL_SURFACE('',#209,10.);
#168=CYLINDRICAL_SURFACE('',#214,9.);
#169=CYLINDRICAL_SURFACE('',#218,9.);
#170=CYLINDRICAL_SURFACE('',#221,14.65);
#171=CYLINDRICAL_SURFACE('',#227,14.65);
#172=ADVANCED_FACE('',(#28),#166,.F.);
#173=ADVANCED_FACE('',(#29,#20),#24,.T.);
#174=ADVANCED_FACE('',(#30),#167,.F.);
#175=ADVANCED_FACE('',(#31,#21),#25,.T.);
#176=ADVANCED_FACE('',(#32),#168,.F.);
#177=ADVANCED_FACE('',(#33),#169,.F.);
#178=ADVANCED_FACE('',(#34),#15,.T.);
#179=ADVANCED_FACE('',(#35),#170,.T.);
#180=ADVANCED_FACE('',(#36,#22),#26,.F.);
#181=ADVANCED_FACE('',(#37),#171,.T.);
#182=ADVANCED_FACE('',(#38),#16,.F.);
#183=ADVANCED_FACE('',(#39,#23),#27,.T.);
#184=CLOSED_SHELL('',(#172,#173,#174,#175,#176,#177,#178,#179,#180,#181,
#182,#183));
#185=DERIVED_UNIT_ELEMENT(#187,1.);
#186=DERIVED_UNIT_ELEMENT(#395,-3.);
#187=(
MASS_UNIT()
NAMED_UNIT(*)
SI_UNIT($,.GRAM.)
);
#188=DERIVED_UNIT((#185,#186));
#189=MEASURE_REPRESENTATION_ITEM('density measure',
POSITIVE_RATIO_MEASURE(1.),#188);
#190=PROPERTY_DEFINITION_REPRESENTATION(#195,#192);
#191=PROPERTY_DEFINITION_REPRESENTATION(#196,#193);
#192=REPRESENTATION('material name',(#194),#392);
#193=REPRESENTATION('density',(#189),#392);
#194=DESCRIPTIVE_REPRESENTATION_ITEM('PE','PE');
#195=PROPERTY_DEFINITION('material property','material name',#402);
#196=PROPERTY_DEFINITION('material property','density of part',#402);
#197=DATE_TIME_ROLE('creation_date');
#198=APPLIED_DATE_AND_TIME_ASSIGNMENT(#199,#197,(#402));
#199=DATE_AND_TIME(#200,#201);
#200=CALENDAR_DATE(2021,19,10);
#201=LOCAL_TIME(0,0,0.,#202);
#202=COORDINATED_UNIVERSAL_TIME_OFFSET(0,0,.BEHIND.);
#203=AXIS2_PLACEMENT_3D('placement',#293,#231,#232);
#204=AXIS2_PLACEMENT_3D('',#294,#233,#234);
#205=AXIS2_PLACEMENT_3D('',#296,#235,#236);
#206=AXIS2_PLACEMENT_3D('',#299,#238,#239);
#207=AXIS2_PLACEMENT_3D('',#300,#240,#241);
#208=AXIS2_PLACEMENT_3D('',#302,#242,#243);
#209=AXIS2_PLACEMENT_3D('',#303,#244,#245);
#210=AXIS2_PLACEMENT_3D('',#305,#246,#247);
#211=AXIS2_PLACEMENT_3D('',#308,#249,#250);
#212=AXIS2_PLACEMENT_3D('',#309,#251,#252);
#213=AXIS2_PLACEMENT_3D('',#311,#253,#254);
#214=AXIS2_PLACEMENT_3D('',#312,#255,#256);
#215=AXIS2_PLACEMENT_3D('',#315,#257,#258);
#216=AXIS2_PLACEMENT_3D('',#317,#259,#260);
#217=AXIS2_PLACEMENT_3D('',#318,#261,#262);
#218=AXIS2_PLACEMENT_3D('',#320,#264,#265);
#219=AXIS2_PLACEMENT_3D('',#323,#267,#268);
#220=AXIS2_PLACEMENT_3D('',#324,#269,#270);
#221=AXIS2_PLACEMENT_3D('',#352,#271,#272);
#222=AXIS2_PLACEMENT_3D('',#354,#273,#274);
#223=AXIS2_PLACEMENT_3D('',#358,#276,#277);
#224=AXIS2_PLACEMENT_3D('',#360,#278,#279);
#225=AXIS2_PLACEMENT_3D('',#361,#280,#281);
#226=AXIS2_PLACEMENT_3D('',#362,#282,#283);
#227=AXIS2_PLACEMENT_3D('',#363,#284,#285);
#228=AXIS2_PLACEMENT_3D('',#364,#286,#287);
#229=AXIS2_PLACEMENT_3D('',#367,#289,#290);
#230=AXIS2_PLACEMENT_3D('',#389,#291,#292);
#231=DIRECTION('axis',(0.,0.,1.));
#232=DIRECTION('refdir',(1.,0.,0.));
#233=DIRECTION('center_axis',(0.,1.,0.));
#234=DIRECTION('ref_axis',(1.,0.,0.));
#235=DIRECTION('center_axis',(0.,1.,0.));
#236=DIRECTION('ref_axis',(1.,0.,0.));
#237=DIRECTION('',(0.,1.,0.));
#238=DIRECTION('center_axis',(0.,1.,0.));
#239=DIRECTION('ref_axis',(1.,0.,0.));
#240=DIRECTION('center_axis',(0.,-1.,0.));
#241=DIRECTION('ref_axis',(0.,0.,-1.));
#242=DIRECTION('center_axis',(0.,-1.,0.));
#243=DIRECTION('ref_axis',(1.,6.16790569236198E-17,0.));
#244=DIRECTION('center_axis',(-0.707106781186547,-0.707106781186548,0.));
#245=DIRECTION('ref_axis',(0.,0.,-1.));
#246=DIRECTION('center_axis',(-0.707106781186547,-0.707106781186548,0.));
#247=DIRECTION('ref_axis',(0.,0.,-1.));
#248=DIRECTION('',(-0.707106781186547,-0.707106781186548,0.));
#249=DIRECTION('center_axis',(-0.707106781186547,-0.707106781186548,0.));
#250=DIRECTION('ref_axis',(0.,0.,-1.));
#251=DIRECTION('center_axis',(0.707106781186547,0.707106781186548,0.));
#252=DIRECTION('ref_axis',(0.,0.,-1.));
#253=DIRECTION('center_axis',(0.707106781186547,0.707106781186548,0.));
#254=DIRECTION('ref_axis',(0.707106781186547,-0.707106781186548,0.));
#255=DIRECTION('center_axis',(0.,-1.,0.));
#256=DIRECTION('ref_axis',(1.,6.16790569236198E-17,0.));
#257=DIRECTION('center_axis',(0.,-1.,0.));
#258=DIRECTION('ref_axis',(1.,6.16790569236198E-17,0.));
#259=DIRECTION('center_axis',(0.382683432365091,0.923879532511286,0.));
#260=DIRECTION('ref_axis',(0.923879532511286,-0.382683432365091,0.));
#261=DIRECTION('center_axis',(0.,-1.,0.));
#262=DIRECTION('ref_axis',(1.,6.16790569236198E-17,0.));
#263=DIRECTION('',(0.,-1.,0.));
#264=DIRECTION('center_axis',(-0.707106781186548,-0.707106781186547,0.));
#265=DIRECTION('ref_axis',(0.707106781186547,-0.707106781186548,0.));
#266=DIRECTION('',(-0.707106781186548,-0.707106781186547,0.));
#267=DIRECTION('center_axis',(-0.707106781186547,-0.707106781186548,0.));
#268=DIRECTION('ref_axis',(0.707106781186548,-0.707106781186547,0.));
#269=DIRECTION('center_axis',(-0.707106781186547,-0.707106781186548,0.));
#270=DIRECTION('ref_axis',(0.707106781186548,-0.707106781186547,0.));
#271=DIRECTION('center_axis',(0.,-1.,0.));
#272=DIRECTION('ref_axis',(-1.,-1.51566283225277E-16,0.));
#273=DIRECTION('center_axis',(0.,-1.,0.));
#274=DIRECTION('ref_axis',(-1.,1.51566283225277E-16,0.));
#275=DIRECTION('',(0.,1.,0.));
#276=DIRECTION('center_axis',(0.38268343236509,0.923879532511287,0.));
#277=DIRECTION('ref_axis',(-0.923879532511286,0.38268343236509,0.));
#278=DIRECTION('center_axis',(0.,-1.,0.));
#279=DIRECTION('ref_axis',(-1.,1.51566283225277E-16,0.));
#280=DIRECTION('center_axis',(0.38268343236509,0.923879532511287,0.));
#281=DIRECTION('ref_axis',(-0.923879532511286,0.38268343236509,0.));
#282=DIRECTION('center_axis',(0.,1.,0.));
#283=DIRECTION('ref_axis',(0.,0.,-1.));
#284=DIRECTION('center_axis',(-0.707106781186548,-0.707106781186547,0.));
#285=DIRECTION('ref_axis',(-0.707106781186547,0.707106781186548,0.));
#286=DIRECTION('center_axis',(-0.707106781186547,-0.707106781186548,0.));
#287=DIRECTION('ref_axis',(-0.707106781186548,0.707106781186547,0.));
#288=DIRECTION('',(0.707106781186548,0.707106781186547,0.));
#289=DIRECTION('center_axis',(0.707106781186547,0.707106781186548,0.));
#290=DIRECTION('ref_axis',(-0.707106781186548,0.707106781186547,0.));
#291=DIRECTION('center_axis',(0.707106781186547,0.707106781186548,0.));
#292=DIRECTION('ref_axis',(0.,0.,-1.));
#293=CARTESIAN_POINT('',(0.,0.,0.));
#294=CARTESIAN_POINT('Origin',(4.44089209850063E-15,-1.33226762955019E-14,
0.));
#295=CARTESIAN_POINT('',(-10.,-1.33226762955019E-14,1.22464679914735E-15));
#296=CARTESIAN_POINT('Origin',(4.44089209850063E-15,-1.33226762955019E-14,
0.));
#297=CARTESIAN_POINT('',(-10.,16.5,1.22464679914735E-15));
#298=CARTESIAN_POINT('',(-10.,-1.33226762955019E-14,1.22464679914735E-15));
#299=CARTESIAN_POINT('Origin',(4.44089209850063E-15,16.5,0.));
#300=CARTESIAN_POINT('Origin',(4.44089209850063E-15,16.5,0.));
#301=CARTESIAN_POINT('',(-9.,16.5,-1.10218211923262E-15));
#302=CARTESIAN_POINT('Origin',(0.,16.5,0.));
#303=CARTESIAN_POINT('Origin',(17.3241161390704,41.8241161390704,0.));
#304=CARTESIAN_POINT('',(17.3241161390704,41.8241161390704,10.));
#305=CARTESIAN_POINT('Origin',(17.3241161390704,41.8241161390704,0.));
#306=CARTESIAN_POINT('',(5.65685424949238,30.1568542494924,10.));
#307=CARTESIAN_POINT('',(17.3241161390704,41.8241161390704,10.));
#308=CARTESIAN_POINT('Origin',(5.65685424949238,30.1568542494924,0.));
#309=CARTESIAN_POINT('Origin',(5.65685424949238,30.1568542494924,0.));
#310=CARTESIAN_POINT('',(-0.707106781186557,36.5208152801713,1.10218211923262E-15));
#311=CARTESIAN_POINT('Origin',(5.65685424949237,30.1568542494924,0.));
#312=CARTESIAN_POINT('Origin',(0.,21.1862915010152,0.));
#313=CARTESIAN_POINT('',(8.,21.1862915010152,4.12310562561765));
#314=CARTESIAN_POINT('',(-9.,21.1862915010152,-1.10218211923262E-15));
#315=CARTESIAN_POINT('Origin',(-4.44089209850063E-15,21.1862915010152,0.));
#316=CARTESIAN_POINT('',(8.,21.1862915010152,-4.12310562561765));
#317=CARTESIAN_POINT('Origin',(0.,24.5,0.));
#318=CARTESIAN_POINT('Origin',(-4.44089209850063E-15,21.1862915010152,0.));
#319=CARTESIAN_POINT('',(-9.,21.1862915010152,-1.10218211923262E-15));
#320=CARTESIAN_POINT('Origin',(17.3241161390704,41.8241161390704,0.));
#321=CARTESIAN_POINT('',(-4.02081528017132,33.2071067811865,-1.10218211923262E-15));
#322=CARTESIAN_POINT('',(10.9601551083915,48.1880771697493,-1.10218211923262E-15));
#323=CARTESIAN_POINT('Origin',(2.34314575050762,26.8431457505076,0.));
#324=CARTESIAN_POINT('Origin',(2.34314575050762,26.8431457505076,0.));
#325=CARTESIAN_POINT('Ctrl Pts',(8.,21.1862915010152,-4.12310562561766));
#326=CARTESIAN_POINT('Ctrl Pts',(8.,21.1862915010152,-4.12310562561766));
#327=CARTESIAN_POINT('Ctrl Pts',(8.,21.1862915010152,-4.12310562561766));
#328=CARTESIAN_POINT('Ctrl Pts',(5.70710678118655,23.4791847198287,-10.4147527121674));
#329=CARTESIAN_POINT('Ctrl Pts',(4.75735931288072,22.5294372515229,-10.4147527121674));
#330=CARTESIAN_POINT('Ctrl Pts',(4.75735931288072,21.1862915010152,-10.4147527121674));
#331=CARTESIAN_POINT('Ctrl Pts',(0.843145750507618,28.3431457505076,-8.74642784226795));
#332=CARTESIAN_POINT('Ctrl Pts',(-2.12132034355964,25.3786796564404,-8.74642784226795));
#333=CARTESIAN_POINT('Ctrl Pts',(-2.12132034355964,21.1862915010152,-8.74642784226795));
#334=CARTESIAN_POINT('Ctrl Pts',(-4.02081528017131,33.2071067811866,-7.07810297236848));
#335=CARTESIAN_POINT('Ctrl Pts',(-9.,28.2279220613579,-7.07810297236848));
#336=CARTESIAN_POINT('Ctrl Pts',(-9.,21.1862915010152,-7.07810297236848));
#337=CARTESIAN_POINT('Ctrl Pts',(-4.02081528017131,33.2071067811866,0.));
#338=CARTESIAN_POINT('Ctrl Pts',(-9.,28.2279220613579,0.));
#339=CARTESIAN_POINT('Ctrl Pts',(-9.,21.1862915010152,0.));
#340=CARTESIAN_POINT('Ctrl Pts',(-4.02081528017131,33.2071067811866,7.07810297236848));
#341=CARTESIAN_POINT('Ctrl Pts',(-9.,28.2279220613579,7.07810297236848));
#342=CARTESIAN_POINT('Ctrl Pts',(-9.,21.1862915010152,7.07810297236848));
#343=CARTESIAN_POINT('Ctrl Pts',(0.843145750507618,28.3431457505076,8.74642784226795));
#344=CARTESIAN_POINT('Ctrl Pts',(-2.12132034355964,25.3786796564404,8.74642784226795));
#345=CARTESIAN_POINT('Ctrl Pts',(-2.12132034355964,21.1862915010152,8.74642784226795));
#346=CARTESIAN_POINT('Ctrl Pts',(5.70710678118655,23.4791847198287,10.4147527121674));
#347=CARTESIAN_POINT('Ctrl Pts',(4.75735931288072,22.5294372515229,10.4147527121674));
#348=CARTESIAN_POINT('Ctrl Pts',(4.75735931288072,21.1862915010152,10.4147527121674));
#349=CARTESIAN_POINT('Ctrl Pts',(8.,21.1862915010152,4.12310562561766));
#350=CARTESIAN_POINT('Ctrl Pts',(8.,21.1862915010152,4.12310562561766));
#351=CARTESIAN_POINT('Ctrl Pts',(8.,21.1862915010152,4.12310562561766));
#352=CARTESIAN_POINT('Origin',(0.,21.1862915010152,0.));
#353=CARTESIAN_POINT('',(14.65,-1.77635683940025E-14,1.79410756075087E-15));
#354=CARTESIAN_POINT('Origin',(4.44089209850063E-15,-1.33226762955019E-14,
0.));
#355=CARTESIAN_POINT('',(14.65,18.4317713112341,1.79410756075087E-15));
#356=CARTESIAN_POINT('',(14.65,21.1862915010152,1.79410756075087E-15));
#357=CARTESIAN_POINT('',(8.,21.1862915010152,12.2728358581055));
#358=CARTESIAN_POINT('Origin',(0.,24.5,0.));
#359=CARTESIAN_POINT('',(7.99999999999999,21.1862915010152,-12.2728358581055));
#360=CARTESIAN_POINT('Origin',(-4.44089209850063E-15,21.1862915010152,0.));
#361=CARTESIAN_POINT('Origin',(0.,24.5,0.));
#362=CARTESIAN_POINT('Origin',(4.44089209850063E-15,-1.33226762955019E-14,
0.));
#363=CARTESIAN_POINT('Origin',(17.3241161390704,41.8241161390704,0.));
#364=CARTESIAN_POINT('Origin',(2.34314575050762,26.8431457505076,0.));
#365=CARTESIAN_POINT('',(27.6832304834533,31.4650017946875,1.79410756075087E-15));
#366=CARTESIAN_POINT('',(27.6832304834533,31.4650017946875,1.79410756075087E-15));
#367=CARTESIAN_POINT('Origin',(17.3241161390704,41.8241161390704,0.));
#368=CARTESIAN_POINT('Ctrl Pts',(8.,21.1862915010152,-12.2728358581055));
#369=CARTESIAN_POINT('Ctrl Pts',(8.,21.1862915010152,-12.2728358581055));
#370=CARTESIAN_POINT('Ctrl Pts',(8.,21.1862915010152,-12.2728358581055));
#371=CARTESIAN_POINT('Ctrl Pts',(0.447445765148301,28.7388457358669,-19.2351547568343));
#372=CARTESIAN_POINT('Ctrl Pts',(-2.68092462948562,25.610475341233,-19.2351547568343));
#373=CARTESIAN_POINT('Ctrl Pts',(-2.68092462948562,21.1862915010152,-19.2351547568343));
#374=CARTESIAN_POINT('Ctrl Pts',(-5.47109462748686,34.6573861285021,-9.61757737841717));
#375=CARTESIAN_POINT('Ctrl Pts',(-11.0510047222032,29.0774760337857,-9.61757737841717));
#376=CARTESIAN_POINT('Ctrl Pts',(-11.0510047222032,21.1862915010152,-9.61757737841717));
#377=CARTESIAN_POINT('Ctrl Pts',(-11.389635020122,40.5759265211372,0.));
#378=CARTESIAN_POINT('Ctrl Pts',(-19.4210848149209,32.5444767263384,0.));
#379=CARTESIAN_POINT('Ctrl Pts',(-19.4210848149209,21.1862915010152,0.));
#380=CARTESIAN_POINT('Ctrl Pts',(-5.47109462748686,34.6573861285021,9.61757737841717));
#381=CARTESIAN_POINT('Ctrl Pts',(-11.0510047222032,29.0774760337857,9.61757737841717));
#382=CARTESIAN_POINT('Ctrl Pts',(-11.0510047222032,21.1862915010152,9.61757737841717));
#383=CARTESIAN_POINT('Ctrl Pts',(0.447445765148301,28.7388457358669,19.2351547568343));
#384=CARTESIAN_POINT('Ctrl Pts',(-2.68092462948562,25.610475341233,19.2351547568343));
#385=CARTESIAN_POINT('Ctrl Pts',(-2.68092462948562,21.1862915010152,19.2351547568343));
#386=CARTESIAN_POINT('Ctrl Pts',(8.,21.1862915010152,12.2728358581055));
#387=CARTESIAN_POINT('Ctrl Pts',(8.,21.1862915010152,12.2728358581055));
#388=CARTESIAN_POINT('Ctrl Pts',(8.,21.1862915010152,12.2728358581055));
#389=CARTESIAN_POINT('Origin',(17.3241161390704,41.8241161390704,0.));
#390=UNCERTAINTY_MEASURE_WITH_UNIT(LENGTH_MEASURE(0.01),#394,
'DISTANCE_ACCURACY_VALUE',
'Maximum model space distance between geometric entities at asserted c
onnectivities');
#391=UNCERTAINTY_MEASURE_WITH_UNIT(LENGTH_MEASURE(0.01),#394,
'DISTANCE_ACCURACY_VALUE',
'Maximum model space distance between geometric entities at asserted c
onnectivities');
#392=(
GEOMETRIC_REPRESENTATION_CONTEXT(3)
GLOBAL_UNCERTAINTY_ASSIGNED_CONTEXT((#390))
GLOBAL_UNIT_ASSIGNED_CONTEXT((#394,#396,#397))
REPRESENTATION_CONTEXT('','3D')
);
#393=(
GEOMETRIC_REPRESENTATION_CONTEXT(3)
GLOBAL_UNCERTAINTY_ASSIGNED_CONTEXT((#391))
GLOBAL_UNIT_ASSIGNED_CONTEXT((#394,#396,#397))
REPRESENTATION_CONTEXT('','3D')
);
#394=(
LENGTH_UNIT()
NAMED_UNIT(*)
SI_UNIT(.MILLI.,.METRE.)
);
#395=(
LENGTH_UNIT()
NAMED_UNIT(*)
SI_UNIT(.CENTI.,.METRE.)
);
#396=(
NAMED_UNIT(*)
PLANE_ANGLE_UNIT()
SI_UNIT($,.RADIAN.)
);
#397=(
NAMED_UNIT(*)
SI_UNIT($,.STERADIAN.)
SOLID_ANGLE_UNIT()
);
#398=SHAPE_DEFINITION_REPRESENTATION(#399,#400);
#399=PRODUCT_DEFINITION_SHAPE('',$,#402);
#400=SHAPE_REPRESENTATION('',(#203),#392);
#401=PRODUCT_DEFINITION_CONTEXT('part definition',#406,'design');
#402=PRODUCT_DEFINITION('HIE-RC-020','HIE-RC-020',#403,#401);
#403=PRODUCT_DEFINITION_FORMATION('0',$,#408);
#404=PRODUCT_RELATED_PRODUCT_CATEGORY('HIE-RC-020','HIE-RC-020',(#408));
#405=APPLICATION_PROTOCOL_DEFINITION('international standard',
'automotive_design',2009,#406);
#406=APPLICATION_CONTEXT(
'Core Data for Automotive Mechanical Design Process');
#407=PRODUCT_CONTEXT('part definition',#406,'mechanical');
#408=PRODUCT('HIE-RC-020','HIE-RC-020',
'PE 45\X\B0 Elbow for socket welding, \X\D820, PN16',(#407));
#409=PRESENTATION_STYLE_ASSIGNMENT((#410));
#410=SURFACE_STYLE_USAGE(.BOTH.,#413);
#411=SURFACE_STYLE_RENDERING_WITH_PROPERTIES($,#417,(#412));
#412=SURFACE_STYLE_TRANSPARENT(0.);
#413=SURFACE_SIDE_STYLE('',(#414,#411));
#414=SURFACE_STYLE_FILL_AREA(#415);
#415=FILL_AREA_STYLE('',(#416));
#416=FILL_AREA_STYLE_COLOUR('',#417);
#417=COLOUR_RGB('',0.109803921568627,0.109803921568627,0.129411764705882);
ENDSEC;
END-ISO-10303-21;
