ISO-10303-21;
HEADER;
/* Generated by software containing ST-Developer
 * from STEP Tools, Inc. (www.steptools.com) 
 */

FILE_DESCRIPTION(
/* description */ ('PVC Bend 15°, Ø110, PN12,5'),
/* implementation_level */ '2;1');

FILE_NAME(
/* name */ 
'KLIIV110',
/* time_stamp */ '2022-05-11T16:00:47+02:00',
/* author */ ('COAB Solutions'),
/* organization */ ('GPA Flowsystem'),
/* preprocessor_version */ 'ST-DEVELOPER v18.1',
/* originating_system */ 'www.coabsolutions.com',
/* authorisation */ '');

FILE_SCHEMA (('AUTOMOTIVE_DESIGN { 1 0 10303 214 3 1 1 }'));
ENDSEC;

DATA;
#10=MECHANICAL_DESIGN_GEOMETRIC_PRESENTATION_REPRESENTATION('',(#13),#407);
#11=SHAPE_REPRESENTATION_RELATIONSHIP('SRR','None',#414,#12);
#12=ADVANCED_BREP_SHAPE_REPRESENTATION('',(#14),#406);
#13=STYLED_ITEM('',(#423),#14);
#14=MANIFOLD_SOLID_BREP('Solid2',#179);
#15=FACE_BOUND('',#47,.T.);
#16=FACE_BOUND('',#51,.T.);
#17=FACE_BOUND('',#54,.T.);
#18=FACE_BOUND('',#56,.T.);
#19=PLANE('',#210);
#20=PLANE('',#216);
#21=PLANE('',#221);
#22=PLANE('',#222);
#23=CYLINDRICAL_SURFACE('',#205,55.);
#24=CYLINDRICAL_SURFACE('',#208,61.5);
#25=CYLINDRICAL_SURFACE('',#211,55.);
#26=CYLINDRICAL_SURFACE('',#214,61.5);
#27=TOROIDAL_SURFACE('',#201,349.404689185356,55.);
#28=TOROIDAL_SURFACE('',#217,349.404689185356,48.5);
#29=FACE_OUTER_BOUND('',#41,.T.);
#30=FACE_OUTER_BOUND('',#42,.T.);
#31=FACE_OUTER_BOUND('',#43,.T.);
#32=FACE_OUTER_BOUND('',#44,.T.);
#33=FACE_OUTER_BOUND('',#45,.T.);
#34=FACE_OUTER_BOUND('',#46,.T.);
#35=FACE_OUTER_BOUND('',#48,.T.);
#36=FACE_OUTER_BOUND('',#49,.T.);
#37=FACE_OUTER_BOUND('',#50,.T.);
#38=FACE_OUTER_BOUND('',#52,.T.);
#39=FACE_OUTER_BOUND('',#53,.T.);
#40=FACE_OUTER_BOUND('',#55,.T.);
#41=EDGE_LOOP('',(#121,#122,#123,#124,#125));
#42=EDGE_LOOP('',(#126,#127,#128,#129,#130,#131));
#43=EDGE_LOOP('',(#132,#133,#134,#135,#136));
#44=EDGE_LOOP('',(#137,#138,#139,#140));
#45=EDGE_LOOP('',(#141,#142,#143,#144));
#46=EDGE_LOOP('',(#145));
#47=EDGE_LOOP('',(#146));
#48=EDGE_LOOP('',(#147,#148,#149,#150));
#49=EDGE_LOOP('',(#151,#152,#153,#154));
#50=EDGE_LOOP('',(#155));
#51=EDGE_LOOP('',(#156));
#52=EDGE_LOOP('',(#157,#158,#159,#160));
#53=EDGE_LOOP('',(#161));
#54=EDGE_LOOP('',(#162));
#55=EDGE_LOOP('',(#163));
#56=EDGE_LOOP('',(#164));
#57=B_SPLINE_CURVE_WITH_KNOTS('',3,(#286,#287,#288,#289,#290,#291,#292,
#293,#294,#295,#296,#297,#298,#299,#300,#301,#302,#303,#304,#305),
 .UNSPECIFIED.,.F.,.F.,(4,2,2,2,2,2,2,2,2,4),(-34.6637530565264,-33.4472170973278,
-32.2310670009241,-30.0809316068108,-27.9301543131478,-25.7796191857795,
-23.630577641227,-21.4836656646246,-19.3376535671761,-17.3341029129439),
 .UNSPECIFIED.);
#58=B_SPLINE_CURVE_WITH_KNOTS('',3,(#306,#307,#308,#309,#310,#311,#312,
#313,#314,#315,#316,#317,#318,#319,#320,#321,#322,#323,#324,#325),
 .UNSPECIFIED.,.F.,.F.,(4,2,2,2,2,2,2,2,2,4),(-17.3341029129439,-17.1900139642935,
-15.0397344734481,-12.8884782051952,-10.7383335865444,-8.58988794430616,
-6.44254208423445,-4.29547600561964,-2.14808819838947,0.),.UNSPECIFIED.);
#59=B_SPLINE_CURVE_WITH_KNOTS('',3,(#330,#331,#332,#333,#334,#335,#336,
#337,#338,#339,#340,#341,#342,#343,#344,#345,#346,#347,#348,#349),
 .UNSPECIFIED.,.F.,.F.,(4,2,2,2,2,2,2,2,2,4),(-17.3330599985545,-17.0420023179023,
-14.8580926580984,-12.6771048280174,-10.494184606169,-8.37875569086217,
-6.29968715098694,-4.2275930504143,-2.13527585085548,0.),.UNSPECIFIED.);
#60=B_SPLINE_CURVE_WITH_KNOTS('',3,(#350,#351,#352,#353,#354,#355,#356,
#357,#358,#359,#360,#361,#362,#363,#364,#365,#366,#367,#368,#369),
 .UNSPECIFIED.,.F.,.F.,(4,2,2,2,2,2,2,2,2,4),(-34.6627757497947,-33.3355552725687,
-32.0387204444286,-29.8548927854321,-27.671273539484,-25.4716855549247,
-23.3357056842654,-21.2695728786305,-19.2313403650504,-17.3330599985545),
 .UNSPECIFIED.);
#61=LINE('',#284,#67);
#62=LINE('',#372,#68);
#63=LINE('',#378,#69);
#64=LINE('',#382,#70);
#65=LINE('',#389,#71);
#66=LINE('',#393,#72);
#67=VECTOR('',#229,58.2234511555924);
#68=VECTOR('',#236,58.2234511555923);
#69=VECTOR('',#243,55.);
#70=VECTOR('',#248,61.5);
#71=VECTOR('',#257,55.);
#72=VECTOR('',#262,61.5);
#73=CIRCLE('',#200,61.5);
#74=CIRCLE('',#202,294.404689185356);
#75=CIRCLE('',#204,61.5);
#76=CIRCLE('',#206,55.);
#77=CIRCLE('',#207,55.);
#78=CIRCLE('',#209,61.5);
#79=CIRCLE('',#212,55.);
#80=CIRCLE('',#213,55.);
#81=CIRCLE('',#215,61.5);
#82=CIRCLE('',#218,48.5);
#83=CIRCLE('',#219,300.904689185356);
#84=CIRCLE('',#220,48.5);
#85=VERTEX_POINT('',#281);
#86=VERTEX_POINT('',#283);
#87=VERTEX_POINT('',#285);
#88=VERTEX_POINT('',#327);
#89=VERTEX_POINT('',#329);
#90=VERTEX_POINT('',#371);
#91=VERTEX_POINT('',#375);
#92=VERTEX_POINT('',#377);
#93=VERTEX_POINT('',#381);
#94=VERTEX_POINT('',#386);
#95=VERTEX_POINT('',#388);
#96=VERTEX_POINT('',#392);
#97=VERTEX_POINT('',#397);
#98=VERTEX_POINT('',#399);
#99=EDGE_CURVE('',#85,#85,#73,.T.);
#100=EDGE_CURVE('',#85,#86,#61,.T.);
#101=EDGE_CURVE('',#87,#86,#57,.T.);
#102=EDGE_CURVE('',#86,#87,#58,.T.);
#103=EDGE_CURVE('',#86,#88,#74,.T.);
#104=EDGE_CURVE('',#88,#89,#59,.T.);
#105=EDGE_CURVE('',#89,#88,#60,.T.);
#106=EDGE_CURVE('',#88,#90,#62,.T.);
#107=EDGE_CURVE('',#90,#90,#75,.T.);
#108=EDGE_CURVE('',#91,#91,#76,.T.);
#109=EDGE_CURVE('',#91,#92,#63,.T.);
#110=EDGE_CURVE('',#92,#92,#77,.T.);
#111=EDGE_CURVE('',#85,#93,#64,.T.);
#112=EDGE_CURVE('',#93,#93,#78,.T.);
#113=EDGE_CURVE('',#94,#94,#79,.T.);
#114=EDGE_CURVE('',#94,#95,#65,.T.);
#115=EDGE_CURVE('',#95,#95,#80,.T.);
#116=EDGE_CURVE('',#90,#96,#66,.T.);
#117=EDGE_CURVE('',#96,#96,#81,.T.);
#118=EDGE_CURVE('',#97,#97,#82,.T.);
#119=EDGE_CURVE('',#97,#98,#83,.T.);
#120=EDGE_CURVE('',#98,#98,#84,.T.);
#121=ORIENTED_EDGE('',*,*,#99,.T.);
#122=ORIENTED_EDGE('',*,*,#100,.T.);
#123=ORIENTED_EDGE('',*,*,#101,.F.);
#124=ORIENTED_EDGE('',*,*,#102,.F.);
#125=ORIENTED_EDGE('',*,*,#100,.F.);
#126=ORIENTED_EDGE('',*,*,#101,.T.);
#127=ORIENTED_EDGE('',*,*,#103,.T.);
#128=ORIENTED_EDGE('',*,*,#104,.T.);
#129=ORIENTED_EDGE('',*,*,#105,.T.);
#130=ORIENTED_EDGE('',*,*,#103,.F.);
#131=ORIENTED_EDGE('',*,*,#102,.T.);
#132=ORIENTED_EDGE('',*,*,#105,.F.);
#133=ORIENTED_EDGE('',*,*,#104,.F.);
#134=ORIENTED_EDGE('',*,*,#106,.T.);
#135=ORIENTED_EDGE('',*,*,#107,.T.);
#136=ORIENTED_EDGE('',*,*,#106,.F.);
#137=ORIENTED_EDGE('',*,*,#108,.F.);
#138=ORIENTED_EDGE('',*,*,#109,.T.);
#139=ORIENTED_EDGE('',*,*,#110,.F.);
#140=ORIENTED_EDGE('',*,*,#109,.F.);
#141=ORIENTED_EDGE('',*,*,#99,.F.);
#142=ORIENTED_EDGE('',*,*,#111,.T.);
#143=ORIENTED_EDGE('',*,*,#112,.F.);
#144=ORIENTED_EDGE('',*,*,#111,.F.);
#145=ORIENTED_EDGE('',*,*,#112,.T.);
#146=ORIENTED_EDGE('',*,*,#110,.T.);
#147=ORIENTED_EDGE('',*,*,#113,.T.);
#148=ORIENTED_EDGE('',*,*,#114,.T.);
#149=ORIENTED_EDGE('',*,*,#115,.T.);
#150=ORIENTED_EDGE('',*,*,#114,.F.);
#151=ORIENTED_EDGE('',*,*,#107,.F.);
#152=ORIENTED_EDGE('',*,*,#116,.T.);
#153=ORIENTED_EDGE('',*,*,#117,.T.);
#154=ORIENTED_EDGE('',*,*,#116,.F.);
#155=ORIENTED_EDGE('',*,*,#117,.F.);
#156=ORIENTED_EDGE('',*,*,#115,.F.);
#157=ORIENTED_EDGE('',*,*,#118,.F.);
#158=ORIENTED_EDGE('',*,*,#119,.T.);
#159=ORIENTED_EDGE('',*,*,#120,.T.);
#160=ORIENTED_EDGE('',*,*,#119,.F.);
#161=ORIENTED_EDGE('',*,*,#108,.T.);
#162=ORIENTED_EDGE('',*,*,#118,.T.);
#163=ORIENTED_EDGE('',*,*,#113,.F.);
#164=ORIENTED_EDGE('',*,*,#120,.F.);
#165=CONICAL_SURFACE('',#199,58.2234511555924,0.785398163397445);
#166=CONICAL_SURFACE('',#203,58.2234511555923,0.785398163397445);
#167=ADVANCED_FACE('',(#29),#165,.T.);
#168=ADVANCED_FACE('',(#30),#27,.T.);
#169=ADVANCED_FACE('',(#31),#166,.T.);
#170=ADVANCED_FACE('',(#32),#23,.F.);
#171=ADVANCED_FACE('',(#33),#24,.T.);
#172=ADVANCED_FACE('',(#34,#15),#19,.T.);
#173=ADVANCED_FACE('',(#35),#25,.F.);
#174=ADVANCED_FACE('',(#36),#26,.T.);
#175=ADVANCED_FACE('',(#37,#16),#20,.F.);
#176=ADVANCED_FACE('',(#38),#28,.F.);
#177=ADVANCED_FACE('',(#39,#17),#21,.T.);
#178=ADVANCED_FACE('',(#40,#18),#22,.F.);
#179=CLOSED_SHELL('',(#167,#168,#169,#170,#171,#172,#173,#174,#175,#176,
#177,#178));
#180=DERIVED_UNIT_ELEMENT(#182,1.);
#181=DERIVED_UNIT_ELEMENT(#409,-3.);
#182=(
MASS_UNIT()
NAMED_UNIT(*)
SI_UNIT($,.GRAM.)
);
#183=DERIVED_UNIT((#180,#181));
#184=MEASURE_REPRESENTATION_ITEM('density measure',
POSITIVE_RATIO_MEASURE(1.),#183);
#185=PROPERTY_DEFINITION_REPRESENTATION(#190,#187);
#186=PROPERTY_DEFINITION_REPRESENTATION(#191,#188);
#187=REPRESENTATION('material name',(#189),#406);
#188=REPRESENTATION('density',(#184),#406);
#189=DESCRIPTIVE_REPRESENTATION_ITEM('PVC','PVC');
#190=PROPERTY_DEFINITION('material property','material name',#416);
#191=PROPERTY_DEFINITION('material property','density of part',#416);
#192=DATE_TIME_ROLE('creation_date');
#193=APPLIED_DATE_AND_TIME_ASSIGNMENT(#194,#192,(#416));
#194=DATE_AND_TIME(#195,#196);
#195=CALENDAR_DATE(2021,19,10);
#196=LOCAL_TIME(0,0,0.,#197);
#197=COORDINATED_UNIVERSAL_TIME_OFFSET(0,0,.BEHIND.);
#198=AXIS2_PLACEMENT_3D('placement',#279,#223,#224);
#199=AXIS2_PLACEMENT_3D('',#280,#225,#226);
#200=AXIS2_PLACEMENT_3D('',#282,#227,#228);
#201=AXIS2_PLACEMENT_3D('',#326,#230,#231);
#202=AXIS2_PLACEMENT_3D('',#328,#232,#233);
#203=AXIS2_PLACEMENT_3D('',#370,#234,#235);
#204=AXIS2_PLACEMENT_3D('',#373,#237,#238);
#205=AXIS2_PLACEMENT_3D('',#374,#239,#240);
#206=AXIS2_PLACEMENT_3D('',#376,#241,#242);
#207=AXIS2_PLACEMENT_3D('',#379,#244,#245);
#208=AXIS2_PLACEMENT_3D('',#380,#246,#247);
#209=AXIS2_PLACEMENT_3D('',#383,#249,#250);
#210=AXIS2_PLACEMENT_3D('',#384,#251,#252);
#211=AXIS2_PLACEMENT_3D('',#385,#253,#254);
#212=AXIS2_PLACEMENT_3D('',#387,#255,#256);
#213=AXIS2_PLACEMENT_3D('',#390,#258,#259);
#214=AXIS2_PLACEMENT_3D('',#391,#260,#261);
#215=AXIS2_PLACEMENT_3D('',#394,#263,#264);
#216=AXIS2_PLACEMENT_3D('',#395,#265,#266);
#217=AXIS2_PLACEMENT_3D('',#396,#267,#268);
#218=AXIS2_PLACEMENT_3D('',#398,#269,#270);
#219=AXIS2_PLACEMENT_3D('',#400,#271,#272);
#220=AXIS2_PLACEMENT_3D('',#401,#273,#274);
#221=AXIS2_PLACEMENT_3D('',#402,#275,#276);
#222=AXIS2_PLACEMENT_3D('',#403,#277,#278);
#223=DIRECTION('axis',(0.,0.,1.));
#224=DIRECTION('refdir',(1.,0.,0.));
#225=DIRECTION('center_axis',(0.25881904510252,0.965925826289069,0.));
#226=DIRECTION('ref_axis',(-0.965925826289068,0.25881904510252,0.));
#227=DIRECTION('center_axis',(-0.258819045102519,-0.965925826289069,0.));
#228=DIRECTION('ref_axis',(-0.965925826289069,0.258819045102519,0.));
#229=DIRECTION('',(-0.866025403784437,-0.500000000000003,8.65956056235491E-17));
#230=DIRECTION('center_axis',(0.,0.,-1.));
#231=DIRECTION('ref_axis',(-1.,0.,0.));
#232=DIRECTION('center_axis',(0.,0.,1.));
#233=DIRECTION('ref_axis',(-1.,0.,0.));
#234=DIRECTION('center_axis',(0.,-1.,0.));
#235=DIRECTION('ref_axis',(-1.,0.,0.));
#236=DIRECTION('',(0.707106781186545,-0.70710678118655,-8.65956056235491E-17));
#237=DIRECTION('center_axis',(0.,1.,0.));
#238=DIRECTION('ref_axis',(-1.,0.,0.));
#239=DIRECTION('center_axis',(-0.258819045102519,-0.965925826289069,0.));
#240=DIRECTION('ref_axis',(0.965925826289069,-0.258819045102519,0.));
#241=DIRECTION('center_axis',(0.25881904510252,0.965925826289069,0.));
#242=DIRECTION('ref_axis',(-0.965925826289068,0.25881904510252,0.));
#243=DIRECTION('',(0.258819045102519,0.965925826289069,0.));
#244=DIRECTION('center_axis',(-0.258819045102519,-0.965925826289069,0.));
#245=DIRECTION('ref_axis',(0.965925826289069,-0.258819045102519,0.));
#246=DIRECTION('center_axis',(-0.258819045102519,-0.965925826289069,0.));
#247=DIRECTION('ref_axis',(-0.965925826289069,0.258819045102519,0.));
#248=DIRECTION('',(0.258819045102519,0.965925826289069,0.));
#249=DIRECTION('center_axis',(0.258819045102519,0.965925826289069,0.));
#250=DIRECTION('ref_axis',(-0.965925826289069,0.258819045102519,0.));
#251=DIRECTION('center_axis',(0.258819045102519,0.965925826289069,0.));
#252=DIRECTION('ref_axis',(0.,0.,1.));
#253=DIRECTION('center_axis',(0.,1.,0.));
#254=DIRECTION('ref_axis',(1.,0.,0.));
#255=DIRECTION('center_axis',(-5.18788064005513E-16,1.,0.));
#256=DIRECTION('ref_axis',(-1.,-5.18788064005513E-16,0.));
#257=DIRECTION('',(0.,-1.,0.));
#258=DIRECTION('center_axis',(0.,-1.,0.));
#259=DIRECTION('ref_axis',(1.,0.,0.));
#260=DIRECTION('center_axis',(0.,1.,0.));
#261=DIRECTION('ref_axis',(-1.,0.,0.));
#262=DIRECTION('',(0.,-1.,0.));
#263=DIRECTION('center_axis',(0.,1.,0.));
#264=DIRECTION('ref_axis',(-1.,0.,0.));
#265=DIRECTION('center_axis',(0.,1.,0.));
#266=DIRECTION('ref_axis',(0.,0.,1.));
#267=DIRECTION('center_axis',(0.,0.,-1.));
#268=DIRECTION('ref_axis',(-1.,0.,0.));
#269=DIRECTION('center_axis',(-0.25881904510252,-0.965925826289069,0.));
#270=DIRECTION('ref_axis',(0.965925826289069,-0.25881904510252,0.));
#271=DIRECTION('center_axis',(0.,0.,1.));
#272=DIRECTION('ref_axis',(-1.,0.,0.));
#273=DIRECTION('center_axis',(5.18788064005513E-16,-1.,0.));
#274=DIRECTION('ref_axis',(1.,5.18788064005513E-16,0.));
#275=DIRECTION('center_axis',(0.25881904510252,0.965925826289069,0.));
#276=DIRECTION('ref_axis',(0.,0.,1.));
#277=DIRECTION('center_axis',(-5.18788064005513E-16,1.,0.));
#278=DIRECTION('ref_axis',(0.,0.,1.));
#279=CARTESIAN_POINT('',(0.,0.,0.));
#280=CARTESIAN_POINT('Origin',(11.0576428315747,157.267684859386,0.));
#281=CARTESIAN_POINT('',(71.3101143914938,144.515216735492,-7.53157781475623E-15));
#282=CARTESIAN_POINT('Origin',(11.905676074716,160.432588009297,0.));
#283=CARTESIAN_POINT('',(63.435275955714,139.96867664477,-1.15163246547996E-15));
#284=CARTESIAN_POINT('',(67.2971779984414,142.198346828722,-7.13031630930084E-15));
#285=CARTESIAN_POINT('',(-42.8650224285225,168.324086496997,0.));
#286=CARTESIAN_POINT('Ctrl Pts',(-42.8650224285225,168.324086496997,2.22044604925031E-15));
#287=CARTESIAN_POINT('Ctrl Pts',(-42.8650224285225,168.324086496997,-4.05511986399545));
#288=CARTESIAN_POINT('Ctrl Pts',(-42.4316820031173,168.208366214166,-8.09781993292805));
#289=CARTESIAN_POINT('Ctrl Pts',(-40.7144181218527,167.749797692698,-16.0095743532695));
#290=CARTESIAN_POINT('Ctrl Pts',(-39.4360205272511,167.408425163861,-19.8544683932951));
#291=CARTESIAN_POINT('Ctrl Pts',(-34.7997197435507,166.170448362512,-29.997543699955));
#292=CARTESIAN_POINT('Ctrl Pts',(-30.6431844450088,165.060627787982,-35.8149712219496));
#293=CARTESIAN_POINT('Ctrl Pts',(-20.4068681340387,162.327906949012,-45.4732721202561));
#294=CARTESIAN_POINT('Ctrl Pts',(-14.4245925848879,160.731044408211,-49.2210176437167));
#295=CARTESIAN_POINT('Ctrl Pts',(-1.40879016193474,157.257448515816,-54.1296701684909));
#296=CARTESIAN_POINT('Ctrl Pts',(5.50003972811317,155.414002382084,-55.2438871710303));
#297=CARTESIAN_POINT('Ctrl Pts',(19.3365950565238,151.722990035132,-54.6672006577791));
#298=CARTESIAN_POINT('Ctrl Pts',(26.1321434299972,149.910687917851,-52.9837531153793));
#299=CARTESIAN_POINT('Ctrl Pts',(38.7111626908974,146.556834267878,-47.0188633489179));
#300=CARTESIAN_POINT('Ctrl Pts',(44.3757098404124,145.046984940984,-42.7968599545551));
#301=CARTESIAN_POINT('Ctrl Pts',(53.8221330438457,142.529592550507,-32.3470905666375));
#302=CARTESIAN_POINT('Ctrl Pts',(57.5147177869018,141.545828522299,-26.2198021928176));
#303=CARTESIAN_POINT('Ctrl Pts',(62.26232317906,140.28108918975,-13.2899331651735));
#304=CARTESIAN_POINT('Ctrl Pts',(63.435275955714,139.96867664477,-6.6705349567268));
#305=CARTESIAN_POINT('Ctrl Pts',(63.435275955714,139.96867664477,9.99200722162641E-15));
#306=CARTESIAN_POINT('Ctrl Pts',(63.435275955714,139.96867664477,5.82867087928207E-15));
#307=CARTESIAN_POINT('Ctrl Pts',(63.435275955714,139.96867664477,0.479723518255146));
#308=CARTESIAN_POINT('Ctrl Pts',(63.4292097863054,139.970292444005,0.959711517097065));
#309=CARTESIAN_POINT('Ctrl Pts',(63.2357014801931,140.021835825095,8.60497888859537));
#310=CARTESIAN_POINT('Ctrl Pts',(61.7023526011835,140.430240305592,15.6646885222634));
#311=CARTESIAN_POINT('Ctrl Pts',(56.1036362089147,141.921766818171,28.7803712027125));
#312=CARTESIAN_POINT('Ctrl Pts',(52.0908404797829,142.990900342373,34.7100582101336));
#313=CARTESIAN_POINT('Ctrl Pts',(42.0956518162754,145.654702186259,44.6388004552492));
#314=CARTESIAN_POINT('Ctrl Pts',(36.2099393315262,147.223619084646,48.5438357780899));
#315=CARTESIAN_POINT('Ctrl Pts',(23.3285430867395,150.658341475055,53.7959109880766));
#316=CARTESIAN_POINT('Ctrl Pts',(16.4567092561573,152.491125533364,55.0948336875525));
#317=CARTESIAN_POINT('Ctrl Pts',(2.6225418341047,156.181746592116,54.8944424288424));
#318=CARTESIAN_POINT('Ctrl Pts',(-4.20780680503359,158.004366422671,53.3984716928918));
#319=CARTESIAN_POINT('Ctrl Pts',(-16.929942642482,161.399768097519,47.7831919486406));
#320=CARTESIAN_POINT('Ctrl Pts',(-22.7004630898523,162.940176379045,43.717801764763));
#321=CARTESIAN_POINT('Ctrl Pts',(-32.4133019337494,165.533239703047,33.5269859111503));
#322=CARTESIAN_POINT('Ctrl Pts',(-36.2625671282467,166.561045329074,27.4985924229823));
#323=CARTESIAN_POINT('Ctrl Pts',(-41.5139378131628,167.963282338823,14.252101428644));
#324=CARTESIAN_POINT('Ctrl Pts',(-42.8650224285225,168.324086496997,7.16029399463156));
#325=CARTESIAN_POINT('Ctrl Pts',(-42.8650224285225,168.324086496997,-2.22044604925031E-15));
#326=CARTESIAN_POINT('Origin',(349.404689185356,70.,0.));
#327=CARTESIAN_POINT('',(55.0702213418277,76.4297786581723,1.00291168454062E-14));
#328=CARTESIAN_POINT('Origin',(349.404689185356,70.,6.73555739531044E-15));
#329=CARTESIAN_POINT('',(-54.9469023111846,76.5530976888155,0.));
#330=CARTESIAN_POINT('Ctrl Pts',(55.0702213418277,76.4297786581723,9.71445146547012E-15));
#331=CARTESIAN_POINT('Ctrl Pts',(55.0702213418277,76.4297786581723,-0.967987097271088));
#332=CARTESIAN_POINT('Ctrl Pts',(55.0446618884384,76.4298165211689,-1.93689900338635));
#333=CARTESIAN_POINT('Ctrl Pts',(54.6087180740903,76.4304618790593,-10.1752583883482));
#334=CARTESIAN_POINT('Ctrl Pts',(52.7842855420659,76.4331832941655,-17.2964603336949));
#335=CARTESIAN_POINT('Ctrl Pts',(46.4725400382105,76.4422405084964,-30.4057927917477));
#336=CARTESIAN_POINT('Ctrl Pts',(42.0510343274112,76.4484641268359,-36.2661641450051));
#337=CARTESIAN_POINT('Ctrl Pts',(31.1807777822433,76.462957485865,-45.9323566930452));
#338=CARTESIAN_POINT('Ctrl Pts',(24.8374564439755,76.4710714328412,-49.6410132680621));
#339=CARTESIAN_POINT('Ctrl Pts',(11.2887692428717,76.4874030216871,-54.3016813977598));
#340=CARTESIAN_POINT('Ctrl Pts',(4.24150857904324,76.4954580007547,-55.2922453083148));
#341=CARTESIAN_POINT('Ctrl Pts',(-9.72130954680205,76.5105897049023,-54.5651896361191));
#342=CARTESIAN_POINT('Ctrl Pts',(-16.5122255977109,76.5175517456714,-52.9003258018144));
#343=CARTESIAN_POINT('Ctrl Pts',(-29.0965514298286,76.5299233817027,-47.1466517857044));
#344=CARTESIAN_POINT('Ctrl Pts',(-34.7814056691704,76.535235243749,-43.1171170075783));
#345=CARTESIAN_POINT('Ctrl Pts',(-44.4084243975924,76.5439890993638,-33.1164207509587));
#346=CARTESIAN_POINT('Ctrl Pts',(-48.2457450669249,76.5473386272735,-27.2173706824721));
#347=CARTESIAN_POINT('Ctrl Pts',(-53.5651039917741,76.5519351877846,-14.1679061065641));
#348=CARTESIAN_POINT('Ctrl Pts',(-54.9469023111846,76.5530976888155,-7.11758616951827));
#349=CARTESIAN_POINT('Ctrl Pts',(-54.9469023111846,76.5530976888155,2.22044604925031E-15));
#350=CARTESIAN_POINT('Ctrl Pts',(-54.9469023111846,76.5530976888155,2.22044604925031E-15));
#351=CARTESIAN_POINT('Ctrl Pts',(-54.9469023111846,76.5530976888155,4.4240682574199));
#352=CARTESIAN_POINT('Ctrl Pts',(-54.4130474611723,76.5526461841345,8.83200658746137));
#353=CARTESIAN_POINT('Ctrl Pts',(-52.324993629947,76.5508615925579,17.3259720380248));
#354=CARTESIAN_POINT('Ctrl Pts',(-50.8017024075735,76.5495548999156,21.3874942299127));
#355=CARTESIAN_POINT('Ctrl Pts',(-45.4792428279271,76.5449132128228,31.6968468215675));
#356=CARTESIAN_POINT('Ctrl Pts',(-40.8886393985803,76.540850566301,37.438182945571));
#357=CARTESIAN_POINT('Ctrl Pts',(-29.7393639173301,76.5305124983885,46.7995186288983));
#358=CARTESIAN_POINT('Ctrl Pts',(-23.2909954741887,76.5243315570523,50.3272689012979));
#359=CARTESIAN_POINT('Ctrl Pts',(-9.34483644067002,76.5101896593955,54.6837392487228));
#360=CARTESIAN_POINT('Ctrl Pts',(-1.97935928977581,76.5023482263249,55.4489130022323));
#361=CARTESIAN_POINT('Ctrl Pts',(12.4064404984137,76.486106548597,54.0675744147172));
#362=CARTESIAN_POINT('Ctrl Pts',(19.2948425719186,76.47787879875,52.0176570087234));
#363=CARTESIAN_POINT('Ctrl Pts',(31.7010932087446,76.4623032993979,45.5150670258068));
#364=CARTESIAN_POINT('Ctrl Pts',(37.1468569487597,76.4550792337853,41.2005669904565));
#365=CARTESIAN_POINT('Ctrl Pts',(46.1012019514713,76.4427998020731,30.8566767769113));
#366=CARTESIAN_POINT('Ctrl Pts',(49.5579327281293,76.4378349783922,24.9401928318052));
#367=CARTESIAN_POINT('Ctrl Pts',(53.9829028114412,76.4314032038138,12.5870999457467));
#368=CARTESIAN_POINT('Ctrl Pts',(55.0702213418277,76.4297786581723,6.31321907620861));
#369=CARTESIAN_POINT('Ctrl Pts',(55.0702213418277,76.4297786581723,8.88178419700125E-15));
#370=CARTESIAN_POINT('Origin',(0.,73.2765488444077,0.));
#371=CARTESIAN_POINT('',(61.5,70.,-7.53157781475622E-15));
#372=CARTESIAN_POINT('',(58.2234511555923,73.2765488444077,-7.13031630930084E-15));
#373=CARTESIAN_POINT('Origin',(0.,70.,0.));
#374=CARTESIAN_POINT('Origin',(30.0230092318924,228.047395849532,0.));
#375=CARTESIAN_POINT('',(-41.2202443711828,174.667635489935,0.));
#376=CARTESIAN_POINT('Origin',(11.9056760747159,160.432588009297,0.));
#377=CARTESIAN_POINT('',(-23.1029112140064,242.28244333017,6.73555739531044E-15));
#378=CARTESIAN_POINT('',(-23.1029112140064,242.28244333017,-6.73555739531044E-15));
#379=CARTESIAN_POINT('Origin',(30.0230092318924,228.047395849532,0.));
#380=CARTESIAN_POINT('Origin',(30.0230092318924,228.047395849532,0.));
#381=CARTESIAN_POINT('',(89.4274475486701,212.130024575727,7.53157781475623E-15));
#382=CARTESIAN_POINT('',(89.4274475486701,212.130024575727,7.53157781475623E-15));
#383=CARTESIAN_POINT('Origin',(30.0230092318924,228.047395849532,0.));
#384=CARTESIAN_POINT('Origin',(30.0230092318924,228.047395849532,0.));
#385=CARTESIAN_POINT('Origin',(0.,0.,0.));
#386=CARTESIAN_POINT('',(-55.,70.,6.73555739531044E-15));
#387=CARTESIAN_POINT('Origin',(-1.39664899375665E-30,70.,0.));
#388=CARTESIAN_POINT('',(-55.,0.,6.73555739531044E-15));
#389=CARTESIAN_POINT('',(-55.,0.,6.73555739531044E-15));
#390=CARTESIAN_POINT('Origin',(0.,0.,0.));
#391=CARTESIAN_POINT('Origin',(0.,0.,0.));
#392=CARTESIAN_POINT('',(61.5,0.,-7.53157781475622E-15));
#393=CARTESIAN_POINT('',(61.5,0.,-7.53157781475622E-15));
#394=CARTESIAN_POINT('Origin',(0.,0.,0.));
#395=CARTESIAN_POINT('Origin',(0.,0.,0.));
#396=CARTESIAN_POINT('Origin',(349.404689185356,70.,0.));
#397=CARTESIAN_POINT('',(58.7530786497357,147.879864321825,5.93953697586466E-15));
#398=CARTESIAN_POINT('Origin',(11.9056760747159,160.432588009297,0.));
#399=CARTESIAN_POINT('',(48.5,70.,5.93953697586466E-15));
#400=CARTESIAN_POINT('Origin',(349.404689185356,70.,5.93953697586466E-15));
#401=CARTESIAN_POINT('Origin',(-1.39664899375665E-30,70.,0.));
#402=CARTESIAN_POINT('Origin',(11.9056760747159,160.432588009297,0.));
#403=CARTESIAN_POINT('Origin',(-3.75895584139587E-61,70.,0.));
#404=UNCERTAINTY_MEASURE_WITH_UNIT(LENGTH_MEASURE(0.01),#408,
'DISTANCE_ACCURACY_VALUE',
'Maximum model space distance between geometric entities at asserted c
onnectivities');
#405=UNCERTAINTY_MEASURE_WITH_UNIT(LENGTH_MEASURE(0.01),#408,
'DISTANCE_ACCURACY_VALUE',
'Maximum model space distance between geometric entities at asserted c
onnectivities');
#406=(
GEOMETRIC_REPRESENTATION_CONTEXT(3)
GLOBAL_UNCERTAINTY_ASSIGNED_CONTEXT((#404))
GLOBAL_UNIT_ASSIGNED_CONTEXT((#408,#410,#411))
REPRESENTATION_CONTEXT('','3D')
);
#407=(
GEOMETRIC_REPRESENTATION_CONTEXT(3)
GLOBAL_UNCERTAINTY_ASSIGNED_CONTEXT((#405))
GLOBAL_UNIT_ASSIGNED_CONTEXT((#408,#410,#411))
REPRESENTATION_CONTEXT('','3D')
);
#408=(
LENGTH_UNIT()
NAMED_UNIT(*)
SI_UNIT(.MILLI.,.METRE.)
);
#409=(
LENGTH_UNIT()
NAMED_UNIT(*)
SI_UNIT(.CENTI.,.METRE.)
);
#410=(
NAMED_UNIT(*)
PLANE_ANGLE_UNIT()
SI_UNIT($,.RADIAN.)
);
#411=(
NAMED_UNIT(*)
SI_UNIT($,.STERADIAN.)
SOLID_ANGLE_UNIT()
);
#412=SHAPE_DEFINITION_REPRESENTATION(#413,#414);
#413=PRODUCT_DEFINITION_SHAPE('',$,#416);
#414=SHAPE_REPRESENTATION('',(#198),#406);
#415=PRODUCT_DEFINITION_CONTEXT('part definition',#420,'design');
#416=PRODUCT_DEFINITION('KLIIV110','KLIIV110',#417,#415);
#417=PRODUCT_DEFINITION_FORMATION('0',$,#422);
#418=PRODUCT_RELATED_PRODUCT_CATEGORY('KLIIV110','KLIIV110',(#422));
#419=APPLICATION_PROTOCOL_DEFINITION('international standard',
'automotive_design',2009,#420);
#420=APPLICATION_CONTEXT(
'Core Data for Automotive Mechanical Design Process');
#421=PRODUCT_CONTEXT('part definition',#420,'mechanical');
#422=PRODUCT('KLIIV110','KLIIV110','PVC Bend 15\X\B0, \X\D8110, PN12,5',
(#421));
#423=PRESENTATION_STYLE_ASSIGNMENT((#424));
#424=SURFACE_STYLE_USAGE(.BOTH.,#427);
#425=SURFACE_STYLE_RENDERING_WITH_PROPERTIES($,#431,(#426));
#426=SURFACE_STYLE_TRANSPARENT(0.);
#427=SURFACE_SIDE_STYLE('',(#428,#425));
#428=SURFACE_STYLE_FILL_AREA(#429);
#429=FILL_AREA_STYLE('',(#430));
#430=FILL_AREA_STYLE_COLOUR('',#431);
#431=COLOUR_RGB('',0.250980392156863,0.290196078431373,0.329411764705882);
ENDSEC;
END-ISO-10303-21;
