ISO-10303-21;
HEADER;
/* Generated by software containing ST-Developer
 * from STEP Tools, Inc. (www.steptools.com) 
 */

FILE_DESCRIPTION(
/* description */ ('PE100 Coupling, \X\D8110, PN16'),
/* implementation_level */ '2;1');

FILE_NAME(
/* name */ 
'MIE-RC-110',
/* time_stamp */ '2023-01-10T10:02:35+01:00',
/* author */ ('COAB Solutions'),
/* organization */ ('GPA Flowsystem'),
/* preprocessor_version */ 'www.coabsolutions.com - creating and organizing all your 3D drawings',
/* originating_system */ 'Autodesk Inventor 2021',
/* authorisation */ '');

FILE_SCHEMA (('AUTOMOTIVE_DESIGN { 1 0 10303 214 3 1 1 }'));
ENDSEC;

DATA;
#10=MECHANICAL_DESIGN_GEOMETRIC_PRESENTATION_REPRESENTATION('',(#13),#318);
#11=SHAPE_REPRESENTATION_RELATIONSHIP('SRR','None',#325,#12);
#12=ADVANCED_BREP_SHAPE_REPRESENTATION('',(#14),#317);
#13=STYLED_ITEM('',(#334),#14);
#14=MANIFOLD_SOLID_BREP('Solid3',#165);
#15=CYLINDRICAL_SURFACE('',#202,55.);
#16=CYLINDRICAL_SURFACE('',#206,52.);
#17=CYLINDRICAL_SURFACE('',#210,55.);
#18=FACE_BOUND('',#52,.T.);
#19=FACE_BOUND('',#56,.T.);
#20=FACE_BOUND('',#59,.T.);
#21=FACE_BOUND('',#62,.T.);
#22=PLANE('',#192);
#23=PLANE('',#200);
#24=PLANE('',#204);
#25=PLANE('',#208);
#26=LINE('',#281,#31);
#27=LINE('',#295,#32);
#28=LINE('',#301,#33);
#29=LINE('',#308,#34);
#30=LINE('',#314,#35);
#31=VECTOR('',#225,66.1765352141519);
#32=VECTOR('',#244,66.1765352141519);
#33=VECTOR('',#251,55.);
#34=VECTOR('',#260,52.);
#35=VECTOR('',#269,55.);
#36=CONICAL_SURFACE('',#190,66.176535214152,0.025481807079117);
#37=CONICAL_SURFACE('',#199,66.1765352141519,0.0254818070791172);
#38=FACE_OUTER_BOUND('',#49,.T.);
#39=FACE_OUTER_BOUND('',#50,.T.);
#40=FACE_OUTER_BOUND('',#51,.T.);
#41=FACE_OUTER_BOUND('',#53,.T.);
#42=FACE_OUTER_BOUND('',#54,.T.);
#43=FACE_OUTER_BOUND('',#55,.T.);
#44=FACE_OUTER_BOUND('',#57,.T.);
#45=FACE_OUTER_BOUND('',#58,.T.);
#46=FACE_OUTER_BOUND('',#60,.T.);
#47=FACE_OUTER_BOUND('',#61,.T.);
#48=FACE_OUTER_BOUND('',#63,.T.);
#49=EDGE_LOOP('',(#112,#113,#114,#115,#116));
#50=EDGE_LOOP('',(#117,#118,#119,#120,#121));
#51=EDGE_LOOP('',(#122));
#52=EDGE_LOOP('',(#123));
#53=EDGE_LOOP('',(#124,#125,#126,#127,#128));
#54=EDGE_LOOP('',(#129,#130,#131,#132,#133));
#55=EDGE_LOOP('',(#134));
#56=EDGE_LOOP('',(#135));
#57=EDGE_LOOP('',(#136,#137,#138,#139));
#58=EDGE_LOOP('',(#140));
#59=EDGE_LOOP('',(#141));
#60=EDGE_LOOP('',(#142,#143,#144,#145));
#61=EDGE_LOOP('',(#146));
#62=EDGE_LOOP('',(#147));
#63=EDGE_LOOP('',(#148,#149,#150,#151));
#64=CIRCLE('',#186,65.1156517156583);
#65=CIRCLE('',#187,0.5);
#66=CIRCLE('',#188,65.6154893938189);
#67=CIRCLE('',#189,65.6154893938189);
#68=CIRCLE('',#191,66.75);
#69=CIRCLE('',#193,55.);
#70=CIRCLE('',#195,65.6154893938188);
#71=CIRCLE('',#196,65.6154893938188);
#72=CIRCLE('',#197,0.5);
#73=CIRCLE('',#198,65.1156517156583);
#74=CIRCLE('',#201,55.);
#75=CIRCLE('',#203,55.);
#76=CIRCLE('',#205,52.);
#77=CIRCLE('',#207,52.);
#78=CIRCLE('',#209,55.);
#79=VERTEX_POINT('',#272);
#80=VERTEX_POINT('',#274);
#81=VERTEX_POINT('',#276);
#82=VERTEX_POINT('',#280);
#83=VERTEX_POINT('',#284);
#84=VERTEX_POINT('',#287);
#85=VERTEX_POINT('',#288);
#86=VERTEX_POINT('',#291);
#87=VERTEX_POINT('',#297);
#88=VERTEX_POINT('',#300);
#89=VERTEX_POINT('',#304);
#90=VERTEX_POINT('',#307);
#91=VERTEX_POINT('',#311);
#92=EDGE_CURVE('',#79,#79,#64,.T.);
#93=EDGE_CURVE('',#79,#80,#65,.T.);
#94=EDGE_CURVE('',#80,#81,#66,.T.);
#95=EDGE_CURVE('',#81,#80,#67,.T.);
#96=EDGE_CURVE('',#81,#82,#26,.T.);
#97=EDGE_CURVE('',#82,#82,#68,.T.);
#98=EDGE_CURVE('',#83,#83,#69,.T.);
#99=EDGE_CURVE('',#84,#85,#70,.T.);
#100=EDGE_CURVE('',#85,#84,#71,.T.);
#101=EDGE_CURVE('',#84,#86,#72,.T.);
#102=EDGE_CURVE('',#86,#86,#73,.T.);
#103=EDGE_CURVE('',#82,#85,#27,.T.);
#104=EDGE_CURVE('',#87,#87,#74,.T.);
#105=EDGE_CURVE('',#83,#88,#28,.T.);
#106=EDGE_CURVE('',#88,#88,#75,.T.);
#107=EDGE_CURVE('',#89,#89,#76,.T.);
#108=EDGE_CURVE('',#89,#90,#29,.T.);
#109=EDGE_CURVE('',#90,#90,#77,.T.);
#110=EDGE_CURVE('',#91,#91,#78,.T.);
#111=EDGE_CURVE('',#91,#87,#30,.T.);
#112=ORIENTED_EDGE('',*,*,#92,.T.);
#113=ORIENTED_EDGE('',*,*,#93,.T.);
#114=ORIENTED_EDGE('',*,*,#94,.T.);
#115=ORIENTED_EDGE('',*,*,#95,.T.);
#116=ORIENTED_EDGE('',*,*,#93,.F.);
#117=ORIENTED_EDGE('',*,*,#95,.F.);
#118=ORIENTED_EDGE('',*,*,#96,.T.);
#119=ORIENTED_EDGE('',*,*,#97,.T.);
#120=ORIENTED_EDGE('',*,*,#96,.F.);
#121=ORIENTED_EDGE('',*,*,#94,.F.);
#122=ORIENTED_EDGE('',*,*,#92,.F.);
#123=ORIENTED_EDGE('',*,*,#98,.F.);
#124=ORIENTED_EDGE('',*,*,#99,.T.);
#125=ORIENTED_EDGE('',*,*,#100,.T.);
#126=ORIENTED_EDGE('',*,*,#101,.T.);
#127=ORIENTED_EDGE('',*,*,#102,.T.);
#128=ORIENTED_EDGE('',*,*,#101,.F.);
#129=ORIENTED_EDGE('',*,*,#97,.F.);
#130=ORIENTED_EDGE('',*,*,#103,.T.);
#131=ORIENTED_EDGE('',*,*,#99,.F.);
#132=ORIENTED_EDGE('',*,*,#100,.F.);
#133=ORIENTED_EDGE('',*,*,#103,.F.);
#134=ORIENTED_EDGE('',*,*,#102,.F.);
#135=ORIENTED_EDGE('',*,*,#104,.T.);
#136=ORIENTED_EDGE('',*,*,#98,.T.);
#137=ORIENTED_EDGE('',*,*,#105,.T.);
#138=ORIENTED_EDGE('',*,*,#106,.F.);
#139=ORIENTED_EDGE('',*,*,#105,.F.);
#140=ORIENTED_EDGE('',*,*,#106,.T.);
#141=ORIENTED_EDGE('',*,*,#107,.F.);
#142=ORIENTED_EDGE('',*,*,#107,.T.);
#143=ORIENTED_EDGE('',*,*,#108,.T.);
#144=ORIENTED_EDGE('',*,*,#109,.F.);
#145=ORIENTED_EDGE('',*,*,#108,.F.);
#146=ORIENTED_EDGE('',*,*,#110,.F.);
#147=ORIENTED_EDGE('',*,*,#109,.T.);
#148=ORIENTED_EDGE('',*,*,#110,.T.);
#149=ORIENTED_EDGE('',*,*,#111,.T.);
#150=ORIENTED_EDGE('',*,*,#104,.F.);
#151=ORIENTED_EDGE('',*,*,#111,.F.);
#152=TOROIDAL_SURFACE('',#185,65.1156517156583,0.5);
#153=TOROIDAL_SURFACE('',#194,65.1156517156583,0.5);
#154=ADVANCED_FACE('',(#38),#152,.T.);
#155=ADVANCED_FACE('',(#39),#36,.T.);
#156=ADVANCED_FACE('',(#40,#18),#22,.T.);
#157=ADVANCED_FACE('',(#41),#153,.T.);
#158=ADVANCED_FACE('',(#42),#37,.T.);
#159=ADVANCED_FACE('',(#43,#19),#23,.T.);
#160=ADVANCED_FACE('',(#44),#15,.F.);
#161=ADVANCED_FACE('',(#45,#20),#24,.T.);
#162=ADVANCED_FACE('',(#46),#16,.F.);
#163=ADVANCED_FACE('',(#47,#21),#25,.T.);
#164=ADVANCED_FACE('',(#48),#17,.F.);
#165=CLOSED_SHELL('',(#154,#155,#156,#157,#158,#159,#160,#161,#162,#163,
#164));
#166=DERIVED_UNIT_ELEMENT(#168,1.);
#167=DERIVED_UNIT_ELEMENT(#320,-3.);
#168=(
MASS_UNIT()
NAMED_UNIT(*)
SI_UNIT($,.GRAM.)
);
#169=DERIVED_UNIT((#166,#167));
#170=MEASURE_REPRESENTATION_ITEM('density measure',
POSITIVE_RATIO_MEASURE(1.),#169);
#171=PROPERTY_DEFINITION_REPRESENTATION(#176,#173);
#172=PROPERTY_DEFINITION_REPRESENTATION(#177,#174);
#173=REPRESENTATION('material name',(#175),#317);
#174=REPRESENTATION('density',(#170),#317);
#175=DESCRIPTIVE_REPRESENTATION_ITEM('PE','PE');
#176=PROPERTY_DEFINITION('material property','material name',#327);
#177=PROPERTY_DEFINITION('material property','density of part',#327);
#178=DATE_TIME_ROLE('creation_date');
#179=APPLIED_DATE_AND_TIME_ASSIGNMENT(#180,#178,(#327));
#180=DATE_AND_TIME(#181,#182);
#181=CALENDAR_DATE(2021,19,10);
#182=LOCAL_TIME(0,0,0.,#183);
#183=COORDINATED_UNIVERSAL_TIME_OFFSET(0,0,.BEHIND.);
#184=AXIS2_PLACEMENT_3D('placement',#270,#211,#212);
#185=AXIS2_PLACEMENT_3D('',#271,#213,#214);
#186=AXIS2_PLACEMENT_3D('',#273,#215,#216);
#187=AXIS2_PLACEMENT_3D('',#275,#217,#218);
#188=AXIS2_PLACEMENT_3D('',#277,#219,#220);
#189=AXIS2_PLACEMENT_3D('',#278,#221,#222);
#190=AXIS2_PLACEMENT_3D('',#279,#223,#224);
#191=AXIS2_PLACEMENT_3D('',#282,#226,#227);
#192=AXIS2_PLACEMENT_3D('',#283,#228,#229);
#193=AXIS2_PLACEMENT_3D('',#285,#230,#231);
#194=AXIS2_PLACEMENT_3D('',#286,#232,#233);
#195=AXIS2_PLACEMENT_3D('',#289,#234,#235);
#196=AXIS2_PLACEMENT_3D('',#290,#236,#237);
#197=AXIS2_PLACEMENT_3D('',#292,#238,#239);
#198=AXIS2_PLACEMENT_3D('',#293,#240,#241);
#199=AXIS2_PLACEMENT_3D('',#294,#242,#243);
#200=AXIS2_PLACEMENT_3D('',#296,#245,#246);
#201=AXIS2_PLACEMENT_3D('',#298,#247,#248);
#202=AXIS2_PLACEMENT_3D('',#299,#249,#250);
#203=AXIS2_PLACEMENT_3D('',#302,#252,#253);
#204=AXIS2_PLACEMENT_3D('',#303,#254,#255);
#205=AXIS2_PLACEMENT_3D('',#305,#256,#257);
#206=AXIS2_PLACEMENT_3D('',#306,#258,#259);
#207=AXIS2_PLACEMENT_3D('',#309,#261,#262);
#208=AXIS2_PLACEMENT_3D('',#310,#263,#264);
#209=AXIS2_PLACEMENT_3D('',#312,#265,#266);
#210=AXIS2_PLACEMENT_3D('',#313,#267,#268);
#211=DIRECTION('axis',(0.,0.,1.));
#212=DIRECTION('refdir',(1.,0.,0.));
#213=DIRECTION('center_axis',(1.,0.,0.));
#214=DIRECTION('ref_axis',(0.,0.,-1.));
#215=DIRECTION('center_axis',(-1.,0.,0.));
#216=DIRECTION('ref_axis',(0.,-1.,1.83697019872103E-16));
#217=DIRECTION('center_axis',(0.,-1.,-1.22464679914735E-16));
#218=DIRECTION('ref_axis',(0.,-1.22464679914735E-16,1.));
#219=DIRECTION('center_axis',(1.,0.,0.));
#220=DIRECTION('ref_axis',(0.,-1.,3.06161699786838E-17));
#221=DIRECTION('center_axis',(1.,0.,0.));
#222=DIRECTION('ref_axis',(0.,-1.,3.06161699786838E-17));
#223=DIRECTION('center_axis',(-1.,0.,0.));
#224=DIRECTION('ref_axis',(0.,1.,0.));
#225=DIRECTION('',(-0.999675356321099,-0.0254790495169003,-3.12028364361889E-18));
#226=DIRECTION('center_axis',(1.,0.,0.));
#227=DIRECTION('ref_axis',(0.,0.,-1.));
#228=DIRECTION('center_axis',(1.,0.,0.));
#229=DIRECTION('ref_axis',(0.,0.,-1.));
#230=DIRECTION('center_axis',(1.,0.,0.));
#231=DIRECTION('ref_axis',(0.,0.,-1.));
#232=DIRECTION('center_axis',(1.,0.,0.));
#233=DIRECTION('ref_axis',(0.,0.,-1.));
#234=DIRECTION('center_axis',(-1.,0.,0.));
#235=DIRECTION('ref_axis',(0.,-1.,3.06161699786838E-17));
#236=DIRECTION('center_axis',(-1.,0.,0.));
#237=DIRECTION('ref_axis',(0.,-1.,3.06161699786838E-17));
#238=DIRECTION('center_axis',(0.,-1.,-1.22464679914735E-16));
#239=DIRECTION('ref_axis',(0.,-1.22464679914735E-16,1.));
#240=DIRECTION('center_axis',(1.,0.,0.));
#241=DIRECTION('ref_axis',(0.,-1.,1.83697019872103E-16));
#242=DIRECTION('center_axis',(1.,0.,0.));
#243=DIRECTION('ref_axis',(0.,1.,0.));
#244=DIRECTION('',(-0.999675356321099,0.0254790495169005,3.12028364361891E-18));
#245=DIRECTION('center_axis',(-1.,0.,0.));
#246=DIRECTION('ref_axis',(0.,0.,1.));
#247=DIRECTION('center_axis',(1.,0.,0.));
#248=DIRECTION('ref_axis',(0.,0.,-1.));
#249=DIRECTION('center_axis',(1.,0.,0.));
#250=DIRECTION('ref_axis',(0.,1.,0.));
#251=DIRECTION('',(-1.,0.,0.));
#252=DIRECTION('center_axis',(1.,0.,0.));
#253=DIRECTION('ref_axis',(0.,0.,-1.));
#254=DIRECTION('center_axis',(1.,0.,0.));
#255=DIRECTION('ref_axis',(0.,0.,-1.));
#256=DIRECTION('center_axis',(1.,0.,0.));
#257=DIRECTION('ref_axis',(0.,0.,-1.));
#258=DIRECTION('center_axis',(1.,0.,0.));
#259=DIRECTION('ref_axis',(0.,1.,0.));
#260=DIRECTION('',(-1.,0.,0.));
#261=DIRECTION('center_axis',(1.,0.,0.));
#262=DIRECTION('ref_axis',(0.,0.,-1.));
#263=DIRECTION('center_axis',(-1.,0.,0.));
#264=DIRECTION('ref_axis',(0.,0.,1.));
#265=DIRECTION('center_axis',(1.,0.,0.));
#266=DIRECTION('ref_axis',(0.,0.,-1.));
#267=DIRECTION('center_axis',(1.,0.,0.));
#268=DIRECTION('ref_axis',(0.,1.,0.));
#269=DIRECTION('',(-1.,0.,0.));
#270=CARTESIAN_POINT('',(0.,0.,0.));
#271=CARTESIAN_POINT('Origin',(44.5,0.,0.));
#272=CARTESIAN_POINT('',(45.,-7.97436744479748E-15,65.1156517156583));
#273=CARTESIAN_POINT('Origin',(45.,0.,0.));
#274=CARTESIAN_POINT('',(44.5127395247585,-8.03557990606274E-15,65.6154893938188));
#275=CARTESIAN_POINT('Origin',(44.5,-7.97436744479748E-15,65.1156517156583));
#276=CARTESIAN_POINT('',(44.5127395247585,-65.6154893938189,-8.03557990606274E-15));
#277=CARTESIAN_POINT('Origin',(44.5127395247585,0.,-1.00444748825784E-14));
#278=CARTESIAN_POINT('Origin',(44.5127395247585,0.,-1.00444748825784E-14));
#279=CARTESIAN_POINT('Origin',(22.5,0.,0.));
#280=CARTESIAN_POINT('',(4.44089209850063E-15,-66.75,-8.17451738430858E-15));
#281=CARTESIAN_POINT('',(22.5,-66.176535214152,-8.10428820286733E-15));
#282=CARTESIAN_POINT('Origin',(0.,0.,0.));
#283=CARTESIAN_POINT('Origin',(45.,55.,0.));
#284=CARTESIAN_POINT('',(45.,-55.,-6.73555739531044E-15));
#285=CARTESIAN_POINT('Origin',(45.,0.,0.));
#286=CARTESIAN_POINT('Origin',(-44.5,0.,0.));
#287=CARTESIAN_POINT('',(-44.5127395247585,-8.03557990606273E-15,65.6154893938188));
#288=CARTESIAN_POINT('',(-44.5127395247585,-65.6154893938188,-8.03557990606274E-15));
#289=CARTESIAN_POINT('Origin',(-44.5127395247585,0.,-1.00444748825784E-14));
#290=CARTESIAN_POINT('Origin',(-44.5127395247585,0.,-1.00444748825784E-14));
#291=CARTESIAN_POINT('',(-45.,-7.97436744479748E-15,65.1156517156583));
#292=CARTESIAN_POINT('Origin',(-44.5,-7.97436744479748E-15,65.1156517156583));
#293=CARTESIAN_POINT('Origin',(-45.,0.,0.));
#294=CARTESIAN_POINT('Origin',(-22.5,0.,0.));
#295=CARTESIAN_POINT('',(-22.5,-66.1765352141519,-8.10428820286733E-15));
#296=CARTESIAN_POINT('Origin',(-45.,65.6030704283039,0.));
#297=CARTESIAN_POINT('',(-45.,-55.,-6.73555739531044E-15));
#298=CARTESIAN_POINT('Origin',(-45.,0.,0.));
#299=CARTESIAN_POINT('Origin',(24.,0.,0.));
#300=CARTESIAN_POINT('',(2.99999999999999,-55.,-6.73555739531044E-15));
#301=CARTESIAN_POINT('',(24.,-55.,-6.73555739531044E-15));
#302=CARTESIAN_POINT('Origin',(2.99999999999999,0.,0.));
#303=CARTESIAN_POINT('Origin',(2.99999999999999,52.,0.));
#304=CARTESIAN_POINT('',(2.99999999999999,-52.,-6.36816335556624E-15));
#305=CARTESIAN_POINT('Origin',(2.99999999999999,0.,0.));
#306=CARTESIAN_POINT('Origin',(-8.88178419700125E-15,0.,0.));
#307=CARTESIAN_POINT('',(-3.00000000000001,-52.,-6.36816335556624E-15));
#308=CARTESIAN_POINT('',(-8.88178419700125E-15,-52.,-6.36816335556624E-15));
#309=CARTESIAN_POINT('Origin',(-3.00000000000001,0.,0.));
#310=CARTESIAN_POINT('Origin',(-3.00000000000001,55.,0.));
#311=CARTESIAN_POINT('',(-3.00000000000001,-55.,-6.73555739531044E-15));
#312=CARTESIAN_POINT('Origin',(-3.00000000000001,0.,0.));
#313=CARTESIAN_POINT('Origin',(-24.,0.,0.));
#314=CARTESIAN_POINT('',(-24.,-55.,-6.73555739531044E-15));
#315=UNCERTAINTY_MEASURE_WITH_UNIT(LENGTH_MEASURE(0.01),#319,
'DISTANCE_ACCURACY_VALUE',
'Maximum model space distance between geometric entities at asserted c
onnectivities');
#316=UNCERTAINTY_MEASURE_WITH_UNIT(LENGTH_MEASURE(0.01),#319,
'DISTANCE_ACCURACY_VALUE',
'Maximum model space distance between geometric entities at asserted c
onnectivities');
#317=(
GEOMETRIC_REPRESENTATION_CONTEXT(3)
GLOBAL_UNCERTAINTY_ASSIGNED_CONTEXT((#315))
GLOBAL_UNIT_ASSIGNED_CONTEXT((#319,#321,#322))
REPRESENTATION_CONTEXT('','3D')
);
#318=(
GEOMETRIC_REPRESENTATION_CONTEXT(3)
GLOBAL_UNCERTAINTY_ASSIGNED_CONTEXT((#316))
GLOBAL_UNIT_ASSIGNED_CONTEXT((#319,#321,#322))
REPRESENTATION_CONTEXT('','3D')
);
#319=(
LENGTH_UNIT()
NAMED_UNIT(*)
SI_UNIT(.MILLI.,.METRE.)
);
#320=(
LENGTH_UNIT()
NAMED_UNIT(*)
SI_UNIT(.CENTI.,.METRE.)
);
#321=(
NAMED_UNIT(*)
PLANE_ANGLE_UNIT()
SI_UNIT($,.RADIAN.)
);
#322=(
NAMED_UNIT(*)
SI_UNIT($,.STERADIAN.)
SOLID_ANGLE_UNIT()
);
#323=SHAPE_DEFINITION_REPRESENTATION(#324,#325);
#324=PRODUCT_DEFINITION_SHAPE('',$,#327);
#325=SHAPE_REPRESENTATION('',(#184),#317);
#326=PRODUCT_DEFINITION_CONTEXT('part definition',#331,'design');
#327=PRODUCT_DEFINITION('MIE-RC-110','MIE-RC-110',#328,#326);
#328=PRODUCT_DEFINITION_FORMATION('0',$,#333);
#329=PRODUCT_RELATED_PRODUCT_CATEGORY('MIE-RC-110','MIE-RC-110',(#333));
#330=APPLICATION_PROTOCOL_DEFINITION('international standard',
'automotive_design',2009,#331);
#331=APPLICATION_CONTEXT(
'Core Data for Automotive Mechanical Design Process');
#332=PRODUCT_CONTEXT('part definition',#331,'mechanical');
#333=PRODUCT('MIE-RC-110','MIE-RC-110','PE100 Coupling, \X\D8110, PN16',
(#332));
#334=PRESENTATION_STYLE_ASSIGNMENT((#335));
#335=SURFACE_STYLE_USAGE(.BOTH.,#338);
#336=SURFACE_STYLE_RENDERING_WITH_PROPERTIES($,#342,(#337));
#337=SURFACE_STYLE_TRANSPARENT(0.);
#338=SURFACE_SIDE_STYLE('',(#339,#336));
#339=SURFACE_STYLE_FILL_AREA(#340);
#340=FILL_AREA_STYLE('',(#341));
#341=FILL_AREA_STYLE_COLOUR('',#342);
#342=COLOUR_RGB('',0.109803921568627,0.109803921568627,0.129411764705882);
ENDSEC;
END-ISO-10303-21;
