ISO-10303-21;
HEADER;
/* Generated by software containing ST-Developer
 * from STEP Tools, Inc. (www.steptools.com) 
 */

FILE_DESCRIPTION(
/* description */ (
'PP/Steel loose Flange acc. EN1092-2 PN10/16, Ø20/DN15'),
/* implementation_level */ '2;1');

FILE_NAME(
/* name */ 'ODS020',
/* time_stamp */ '2021-10-25T13:56:34+02:00',
/* author */ ('COAB Solutions'),
/* organization */ ('GPA Flowsystem'),
/* preprocessor_version */ '',
/* originating_system */ '
www
.coabsolutions.com',
/* authorisation */ '');

FILE_SCHEMA (('AUTOMOTIVE_DESIGN { 1 0 10303 214 3 1 1 }'));
ENDSEC;

DATA;
#10=MECHANICAL_DESIGN_GEOMETRIC_PRESENTATION_REPRESENTATION('',(#13),#287);
#11=SHAPE_REPRESENTATION_RELATIONSHIP('SRR','None',#294,#12);
#12=ADVANCED_BREP_SHAPE_REPRESENTATION('',(#14),#286);
#13=STYLED_ITEM('',(#303),#14);
#14=MANIFOLD_SOLID_BREP('Solid2',#157);
#15=FACE_BOUND('',#40,.T.);
#16=FACE_BOUND('',#41,.T.);
#17=FACE_BOUND('',#42,.T.);
#18=FACE_BOUND('',#43,.T.);
#19=FACE_BOUND('',#44,.T.);
#20=FACE_BOUND('',#48,.T.);
#21=FACE_BOUND('',#49,.T.);
#22=FACE_BOUND('',#50,.T.);
#23=FACE_BOUND('',#51,.T.);
#24=FACE_BOUND('',#52,.T.);
#25=PLANE('',#189);
#26=PLANE('',#196);
#27=FACE_OUTER_BOUND('',#35,.T.);
#28=FACE_OUTER_BOUND('',#36,.T.);
#29=FACE_OUTER_BOUND('',#37,.T.);
#30=FACE_OUTER_BOUND('',#38,.T.);
#31=FACE_OUTER_BOUND('',#39,.T.);
#32=FACE_OUTER_BOUND('',#45,.T.);
#33=FACE_OUTER_BOUND('',#46,.T.);
#34=FACE_OUTER_BOUND('',#47,.T.);
#35=EDGE_LOOP('',(#107,#108,#109,#110));
#36=EDGE_LOOP('',(#111,#112,#113,#114));
#37=EDGE_LOOP('',(#115,#116,#117,#118));
#38=EDGE_LOOP('',(#119,#120,#121,#122));
#39=EDGE_LOOP('',(#123));
#40=EDGE_LOOP('',(#124));
#41=EDGE_LOOP('',(#125));
#42=EDGE_LOOP('',(#126));
#43=EDGE_LOOP('',(#127));
#44=EDGE_LOOP('',(#128));
#45=EDGE_LOOP('',(#129,#130,#131,#132));
#46=EDGE_LOOP('',(#133,#134,#135,#136));
#47=EDGE_LOOP('',(#137));
#48=EDGE_LOOP('',(#138));
#49=EDGE_LOOP('',(#139));
#50=EDGE_LOOP('',(#140));
#51=EDGE_LOOP('',(#141));
#52=EDGE_LOOP('',(#142));
#53=LINE('',#250,#59);
#54=LINE('',#256,#60);
#55=LINE('',#262,#61);
#56=LINE('',#268,#62);
#57=LINE('',#278,#63);
#58=LINE('',#282,#64);
#59=VECTOR('',#203,7.);
#60=VECTOR('',#210,7.);
#61=VECTOR('',#217,7.);
#62=VECTOR('',#224,7.);
#63=VECTOR('',#237,14.);
#64=VECTOR('',#242,47.5);
#65=CIRCLE('',#178,7.);
#66=CIRCLE('',#179,7.);
#67=CIRCLE('',#181,7.);
#68=CIRCLE('',#182,7.);
#69=CIRCLE('',#184,7.);
#70=CIRCLE('',#185,7.);
#71=CIRCLE('',#187,7.);
#72=CIRCLE('',#188,7.);
#73=CIRCLE('',#190,47.5);
#74=CIRCLE('',#191,14.);
#75=CIRCLE('',#193,14.);
#76=CIRCLE('',#195,47.5);
#77=VERTEX_POINT('',#247);
#78=VERTEX_POINT('',#249);
#79=VERTEX_POINT('',#253);
#80=VERTEX_POINT('',#255);
#81=VERTEX_POINT('',#259);
#82=VERTEX_POINT('',#261);
#83=VERTEX_POINT('',#265);
#84=VERTEX_POINT('',#267);
#85=VERTEX_POINT('',#271);
#86=VERTEX_POINT('',#273);
#87=VERTEX_POINT('',#276);
#88=VERTEX_POINT('',#280);
#89=EDGE_CURVE('',#77,#77,#65,.T.);
#90=EDGE_CURVE('',#77,#78,#53,.T.);
#91=EDGE_CURVE('',#78,#78,#66,.T.);
#92=EDGE_CURVE('',#79,#79,#67,.T.);
#93=EDGE_CURVE('',#79,#80,#54,.T.);
#94=EDGE_CURVE('',#80,#80,#68,.T.);
#95=EDGE_CURVE('',#81,#81,#69,.T.);
#96=EDGE_CURVE('',#81,#82,#55,.T.);
#97=EDGE_CURVE('',#82,#82,#70,.T.);
#98=EDGE_CURVE('',#83,#83,#71,.T.);
#99=EDGE_CURVE('',#83,#84,#56,.T.);
#100=EDGE_CURVE('',#84,#84,#72,.T.);
#101=EDGE_CURVE('',#85,#85,#73,.T.);
#102=EDGE_CURVE('',#86,#86,#74,.T.);
#103=EDGE_CURVE('',#87,#87,#75,.T.);
#104=EDGE_CURVE('',#87,#86,#57,.T.);
#105=EDGE_CURVE('',#88,#88,#76,.T.);
#106=EDGE_CURVE('',#88,#85,#58,.T.);
#107=ORIENTED_EDGE('',*,*,#89,.F.);
#108=ORIENTED_EDGE('',*,*,#90,.T.);
#109=ORIENTED_EDGE('',*,*,#91,.F.);
#110=ORIENTED_EDGE('',*,*,#90,.F.);
#111=ORIENTED_EDGE('',*,*,#92,.F.);
#112=ORIENTED_EDGE('',*,*,#93,.T.);
#113=ORIENTED_EDGE('',*,*,#94,.F.);
#114=ORIENTED_EDGE('',*,*,#93,.F.);
#115=ORIENTED_EDGE('',*,*,#95,.F.);
#116=ORIENTED_EDGE('',*,*,#96,.T.);
#117=ORIENTED_EDGE('',*,*,#97,.F.);
#118=ORIENTED_EDGE('',*,*,#96,.F.);
#119=ORIENTED_EDGE('',*,*,#98,.F.);
#120=ORIENTED_EDGE('',*,*,#99,.T.);
#121=ORIENTED_EDGE('',*,*,#100,.F.);
#122=ORIENTED_EDGE('',*,*,#99,.F.);
#123=ORIENTED_EDGE('',*,*,#101,.T.);
#124=ORIENTED_EDGE('',*,*,#91,.T.);
#125=ORIENTED_EDGE('',*,*,#94,.T.);
#126=ORIENTED_EDGE('',*,*,#97,.T.);
#127=ORIENTED_EDGE('',*,*,#100,.T.);
#128=ORIENTED_EDGE('',*,*,#102,.T.);
#129=ORIENTED_EDGE('',*,*,#103,.F.);
#130=ORIENTED_EDGE('',*,*,#104,.T.);
#131=ORIENTED_EDGE('',*,*,#102,.F.);
#132=ORIENTED_EDGE('',*,*,#104,.F.);
#133=ORIENTED_EDGE('',*,*,#105,.F.);
#134=ORIENTED_EDGE('',*,*,#106,.T.);
#135=ORIENTED_EDGE('',*,*,#101,.F.);
#136=ORIENTED_EDGE('',*,*,#106,.F.);
#137=ORIENTED_EDGE('',*,*,#105,.T.);
#138=ORIENTED_EDGE('',*,*,#89,.T.);
#139=ORIENTED_EDGE('',*,*,#92,.T.);
#140=ORIENTED_EDGE('',*,*,#95,.T.);
#141=ORIENTED_EDGE('',*,*,#98,.T.);
#142=ORIENTED_EDGE('',*,*,#103,.T.);
#143=CYLINDRICAL_SURFACE('',#177,7.);
#144=CYLINDRICAL_SURFACE('',#180,7.);
#145=CYLINDRICAL_SURFACE('',#183,7.);
#146=CYLINDRICAL_SURFACE('',#186,7.);
#147=CYLINDRICAL_SURFACE('',#192,14.);
#148=CYLINDRICAL_SURFACE('',#194,47.5);
#149=ADVANCED_FACE('',(#27),#143,.F.);
#150=ADVANCED_FACE('',(#28),#144,.F.);
#151=ADVANCED_FACE('',(#29),#145,.F.);
#152=ADVANCED_FACE('',(#30),#146,.F.);
#153=ADVANCED_FACE('',(#31,#15,#16,#17,#18,#19),#25,.F.);
#154=ADVANCED_FACE('',(#32),#147,.F.);
#155=ADVANCED_FACE('',(#33),#148,.T.);
#156=ADVANCED_FACE('',(#34,#20,#21,#22,#23,#24),#26,.T.);
#157=CLOSED_SHELL('',(#149,#150,#151,#152,#153,#154,#155,#156));
#158=DERIVED_UNIT_ELEMENT(#160,1.);
#159=DERIVED_UNIT_ELEMENT(#289,-3.);
#160=(
MASS_UNIT()
NAMED_UNIT(*)
SI_UNIT($,.GRAM.)
);
#161=DERIVED_UNIT((#158,#159));
#162=MEASURE_REPRESENTATION_ITEM('density measure',
POSITIVE_RATIO_MEASURE(1.),#161);
#163=PROPERTY_DEFINITION_REPRESENTATION(#168,#165);
#164=PROPERTY_DEFINITION_REPRESENTATION(#169,#166);
#165=REPRESENTATION('material name',(#167),#286);
#166=REPRESENTATION('density',(#162),#286);
#167=DESCRIPTIVE_REPRESENTATION_ITEM('PP (Black)','PP (Black)');
#168=PROPERTY_DEFINITION('material property','material name',#296);
#169=PROPERTY_DEFINITION('material property','density of part',#296);
#170=DATE_TIME_ROLE('creation_date');
#171=APPLIED_DATE_AND_TIME_ASSIGNMENT(#172,#170,(#296));
#172=DATE_AND_TIME(#173,#174);
#173=CALENDAR_DATE(2021,19,10);
#174=LOCAL_TIME(0,0,0.,#175);
#175=COORDINATED_UNIVERSAL_TIME_OFFSET(0,0,.BEHIND.);
#176=AXIS2_PLACEMENT_3D('placement',#245,#197,#198);
#177=AXIS2_PLACEMENT_3D('',#246,#199,#200);
#178=AXIS2_PLACEMENT_3D('',#248,#201,#202);
#179=AXIS2_PLACEMENT_3D('',#251,#204,#205);
#180=AXIS2_PLACEMENT_3D('',#252,#206,#207);
#181=AXIS2_PLACEMENT_3D('',#254,#208,#209);
#182=AXIS2_PLACEMENT_3D('',#257,#211,#212);
#183=AXIS2_PLACEMENT_3D('',#258,#213,#214);
#184=AXIS2_PLACEMENT_3D('',#260,#215,#216);
#185=AXIS2_PLACEMENT_3D('',#263,#218,#219);
#186=AXIS2_PLACEMENT_3D('',#264,#220,#221);
#187=AXIS2_PLACEMENT_3D('',#266,#222,#223);
#188=AXIS2_PLACEMENT_3D('',#269,#225,#226);
#189=AXIS2_PLACEMENT_3D('',#270,#227,#228);
#190=AXIS2_PLACEMENT_3D('',#272,#229,#230);
#191=AXIS2_PLACEMENT_3D('',#274,#231,#232);
#192=AXIS2_PLACEMENT_3D('',#275,#233,#234);
#193=AXIS2_PLACEMENT_3D('',#277,#235,#236);
#194=AXIS2_PLACEMENT_3D('',#279,#238,#239);
#195=AXIS2_PLACEMENT_3D('',#281,#240,#241);
#196=AXIS2_PLACEMENT_3D('',#283,#243,#244);
#197=DIRECTION('axis',(0.,0.,1.));
#198=DIRECTION('refdir',(1.,0.,0.));
#199=DIRECTION('center_axis',(0.,1.,0.));
#200=DIRECTION('ref_axis',(1.83697019872103E-16,0.,-1.));
#201=DIRECTION('center_axis',(0.,-1.,0.));
#202=DIRECTION('ref_axis',(1.83697019872103E-16,0.,-1.));
#203=DIRECTION('',(0.,-1.,0.));
#204=DIRECTION('center_axis',(0.,1.,0.));
#205=DIRECTION('ref_axis',(1.83697019872103E-16,0.,-1.));
#206=DIRECTION('center_axis',(0.,1.,0.));
#207=DIRECTION('ref_axis',(1.,0.,1.22464679914735E-16));
#208=DIRECTION('center_axis',(0.,-1.,0.));
#209=DIRECTION('ref_axis',(1.,0.,1.22464679914735E-16));
#210=DIRECTION('',(0.,-1.,0.));
#211=DIRECTION('center_axis',(0.,1.,0.));
#212=DIRECTION('ref_axis',(1.,0.,1.22464679914735E-16));
#213=DIRECTION('center_axis',(0.,1.,0.));
#214=DIRECTION('ref_axis',(-6.12323399573677E-17,0.,1.));
#215=DIRECTION('center_axis',(0.,-1.,0.));
#216=DIRECTION('ref_axis',(-6.12323399573677E-17,0.,1.));
#217=DIRECTION('',(0.,-1.,0.));
#218=DIRECTION('center_axis',(0.,1.,0.));
#219=DIRECTION('ref_axis',(-6.12323399573677E-17,0.,1.));
#220=DIRECTION('center_axis',(0.,1.,0.));
#221=DIRECTION('ref_axis',(-1.,0.,0.));
#222=DIRECTION('center_axis',(0.,-1.,0.));
#223=DIRECTION('ref_axis',(-1.,0.,0.));
#224=DIRECTION('',(0.,-1.,0.));
#225=DIRECTION('center_axis',(0.,1.,0.));
#226=DIRECTION('ref_axis',(-1.,0.,0.));
#227=DIRECTION('center_axis',(0.,1.,0.));
#228=DIRECTION('ref_axis',(0.,0.,1.));
#229=DIRECTION('center_axis',(0.,-1.,0.));
#230=DIRECTION('ref_axis',(-1.,0.,0.));
#231=DIRECTION('center_axis',(0.,1.,0.));
#232=DIRECTION('ref_axis',(1.,0.,0.));
#233=DIRECTION('center_axis',(0.,1.,0.));
#234=DIRECTION('ref_axis',(1.,0.,0.));
#235=DIRECTION('center_axis',(0.,-1.,0.));
#236=DIRECTION('ref_axis',(1.,0.,0.));
#237=DIRECTION('',(0.,-1.,0.));
#238=DIRECTION('center_axis',(0.,1.,0.));
#239=DIRECTION('ref_axis',(-1.,0.,0.));
#240=DIRECTION('center_axis',(0.,1.,0.));
#241=DIRECTION('ref_axis',(-1.,0.,0.));
#242=DIRECTION('',(0.,-1.,0.));
#243=DIRECTION('center_axis',(0.,1.,0.));
#244=DIRECTION('ref_axis',(0.,0.,1.));
#245=CARTESIAN_POINT('',(0.,0.,0.));
#246=CARTESIAN_POINT('Origin',(22.9809703885628,0.,22.9809703885628));
#247=CARTESIAN_POINT('',(22.9809703885628,6.,29.9809703885628));
#248=CARTESIAN_POINT('Origin',(22.9809703885628,6.,22.9809703885628));
#249=CARTESIAN_POINT('',(22.9809703885628,-6.,29.9809703885628));
#250=CARTESIAN_POINT('',(22.9809703885628,0.,29.9809703885628));
#251=CARTESIAN_POINT('Origin',(22.9809703885628,-6.,22.9809703885628));
#252=CARTESIAN_POINT('Origin',(-22.9809703885628,0.,22.9809703885628));
#253=CARTESIAN_POINT('',(-29.9809703885628,6.,22.9809703885628));
#254=CARTESIAN_POINT('Origin',(-22.9809703885628,6.,22.9809703885628));
#255=CARTESIAN_POINT('',(-29.9809703885628,-6.,22.9809703885628));
#256=CARTESIAN_POINT('',(-29.9809703885628,0.,22.9809703885628));
#257=CARTESIAN_POINT('Origin',(-22.9809703885628,-6.,22.9809703885628));
#258=CARTESIAN_POINT('Origin',(-22.9809703885628,0.,-22.9809703885628));
#259=CARTESIAN_POINT('',(-22.9809703885628,6.,-29.9809703885628));
#260=CARTESIAN_POINT('Origin',(-22.9809703885628,6.,-22.9809703885628));
#261=CARTESIAN_POINT('',(-22.9809703885628,-6.,-29.9809703885628));
#262=CARTESIAN_POINT('',(-22.9809703885628,0.,-29.9809703885628));
#263=CARTESIAN_POINT('Origin',(-22.9809703885628,-6.,-22.9809703885628));
#264=CARTESIAN_POINT('Origin',(22.9809703885628,0.,-22.9809703885628));
#265=CARTESIAN_POINT('',(29.9809703885628,6.,-22.9809703885628));
#266=CARTESIAN_POINT('Origin',(22.9809703885628,6.,-22.9809703885628));
#267=CARTESIAN_POINT('',(29.9809703885628,-6.,-22.9809703885628));
#268=CARTESIAN_POINT('',(29.9809703885628,0.,-22.9809703885628));
#269=CARTESIAN_POINT('Origin',(22.9809703885628,-6.,-22.9809703885628));
#270=CARTESIAN_POINT('Origin',(0.,-6.,0.));
#271=CARTESIAN_POINT('',(47.5,-6.,-5.81707229594993E-15));
#272=CARTESIAN_POINT('Origin',(0.,-6.,0.));
#273=CARTESIAN_POINT('',(-14.,-6.,1.71450551880629E-15));
#274=CARTESIAN_POINT('Origin',(0.,-6.,0.));
#275=CARTESIAN_POINT('Origin',(0.,0.,0.));
#276=CARTESIAN_POINT('',(-14.,6.,1.71450551880629E-15));
#277=CARTESIAN_POINT('Origin',(0.,6.,0.));
#278=CARTESIAN_POINT('',(-14.,0.,1.71450551880629E-15));
#279=CARTESIAN_POINT('Origin',(0.,0.,0.));
#280=CARTESIAN_POINT('',(47.5,6.,-5.81707229594993E-15));
#281=CARTESIAN_POINT('Origin',(0.,6.,0.));
#282=CARTESIAN_POINT('',(47.5,0.,-5.81707229594993E-15));
#283=CARTESIAN_POINT('Origin',(0.,6.,0.));
#284=UNCERTAINTY_MEASURE_WITH_UNIT(LENGTH_MEASURE(0.01),#288,
'DISTANCE_ACCURACY_VALUE',
'Maximum model space distance between geometric entities at asserted c
onnectivities');
#285=UNCERTAINTY_MEASURE_WITH_UNIT(LENGTH_MEASURE(0.01),#288,
'DISTANCE_ACCURACY_VALUE',
'Maximum model space distance between geometric entities at asserted c
onnectivities');
#286=(
GEOMETRIC_REPRESENTATION_CONTEXT(3)
GLOBAL_UNCERTAINTY_ASSIGNED_CONTEXT((#284))
GLOBAL_UNIT_ASSIGNED_CONTEXT((#288,#290,#291))
REPRESENTATION_CONTEXT('','3D')
);
#287=(
GEOMETRIC_REPRESENTATION_CONTEXT(3)
GLOBAL_UNCERTAINTY_ASSIGNED_CONTEXT((#285))
GLOBAL_UNIT_ASSIGNED_CONTEXT((#288,#290,#291))
REPRESENTATION_CONTEXT('','3D')
);
#288=(
LENGTH_UNIT()
NAMED_UNIT(*)
SI_UNIT(.MILLI.,.METRE.)
);
#289=(
LENGTH_UNIT()
NAMED_UNIT(*)
SI_UNIT(.CENTI.,.METRE.)
);
#290=(
NAMED_UNIT(*)
PLANE_ANGLE_UNIT()
SI_UNIT($,.RADIAN.)
);
#291=(
NAMED_UNIT(*)
SI_UNIT($,.STERADIAN.)
SOLID_ANGLE_UNIT()
);
#292=SHAPE_DEFINITION_REPRESENTATION(#293,#294);
#293=PRODUCT_DEFINITION_SHAPE('',$,#296);
#294=SHAPE_REPRESENTATION('',(#176),#286);
#295=PRODUCT_DEFINITION_CONTEXT('part definition',#300,'design');
#296=PRODUCT_DEFINITION('ODS020','ODS020',#297,#295);
#297=PRODUCT_DEFINITION_FORMATION('0',$,#302);
#298=PRODUCT_RELATED_PRODUCT_CATEGORY('ODS020','ODS020',(#302));
#299=APPLICATION_PROTOCOL_DEFINITION('international standard',
'automotive_design',2009,#300);
#300=APPLICATION_CONTEXT(
'Core Data for Automotive Mechanical Design Process');
#301=PRODUCT_CONTEXT('part definition',#300,'mechanical');
#302=PRODUCT('ODS020','ODS020',
'PP/Steel loose Flange acc. EN1092-2 PN10/16, \X\D820/DN15',(#301));
#303=PRESENTATION_STYLE_ASSIGNMENT((#304));
#304=SURFACE_STYLE_USAGE(.BOTH.,#307);
#305=SURFACE_STYLE_RENDERING_WITH_PROPERTIES($,#311,(#306));
#306=SURFACE_STYLE_TRANSPARENT(0.);
#307=SURFACE_SIDE_STYLE('',(#308,#305));
#308=SURFACE_STYLE_FILL_AREA(#309);
#309=FILL_AREA_STYLE('',(#310));
#310=FILL_AREA_STYLE_COLOUR('',#311);
#311=COLOUR_RGB('',0.109803921568627,0.109803921568627,0.129411764705882);
ENDSEC;
END-ISO-10303-21;
