ISO-10303-21;
HEADER;
/* Generated by software containing ST-Developer
 * from STEP Tools, Inc. (www.steptools.com) 
 */

FILE_DESCRIPTION(
/* description */ (
'PP/Steel loose Flange acc. EN1092-2 PN10/16, Ø125/DN100'),
/* implementation_level */ '2;1');

FILE_NAME(
/* name */ 'ODS125',
/* time_stamp */ '2021-10-25T13:56:46+02:00',
/* author */ ('COAB Solutions'),
/* organization */ ('GPA Flowsystem'),
/* preprocessor_version */ '',
/* originating_system */ 'www
.coabsolutions.com',
/* authorisation */ '');

FILE_SCHEMA (('AUTOMOTIVE_DESIGN { 1 0 10303 214 3 1 1 }'));
ENDSEC;

DATA;
#10=MECHANICAL_DESIGN_GEOMETRIC_PRESENTATION_REPRESENTATION('',(#13),#443);
#11=SHAPE_REPRESENTATION_RELATIONSHIP('SRR','None',#450,#12);
#12=ADVANCED_BREP_SHAPE_REPRESENTATION('',(#14),#442);
#13=STYLED_ITEM('',(#459),#14);
#14=MANIFOLD_SOLID_BREP('Solid2',#249);
#15=FACE_BOUND('',#56,.T.);
#16=FACE_BOUND('',#57,.T.);
#17=FACE_BOUND('',#58,.T.);
#18=FACE_BOUND('',#59,.T.);
#19=FACE_BOUND('',#60,.T.);
#20=FACE_BOUND('',#61,.T.);
#21=FACE_BOUND('',#62,.T.);
#22=FACE_BOUND('',#63,.T.);
#23=FACE_BOUND('',#64,.T.);
#24=FACE_BOUND('',#68,.T.);
#25=FACE_BOUND('',#69,.T.);
#26=FACE_BOUND('',#70,.T.);
#27=FACE_BOUND('',#71,.T.);
#28=FACE_BOUND('',#72,.T.);
#29=FACE_BOUND('',#73,.T.);
#30=FACE_BOUND('',#74,.T.);
#31=FACE_BOUND('',#75,.T.);
#32=FACE_BOUND('',#76,.T.);
#33=PLANE('',#293);
#34=PLANE('',#300);
#35=FACE_OUTER_BOUND('',#47,.T.);
#36=FACE_OUTER_BOUND('',#48,.T.);
#37=FACE_OUTER_BOUND('',#49,.T.);
#38=FACE_OUTER_BOUND('',#50,.T.);
#39=FACE_OUTER_BOUND('',#51,.T.);
#40=FACE_OUTER_BOUND('',#52,.T.);
#41=FACE_OUTER_BOUND('',#53,.T.);
#42=FACE_OUTER_BOUND('',#54,.T.);
#43=FACE_OUTER_BOUND('',#55,.T.);
#44=FACE_OUTER_BOUND('',#65,.T.);
#45=FACE_OUTER_BOUND('',#66,.T.);
#46=FACE_OUTER_BOUND('',#67,.T.);
#47=EDGE_LOOP('',(#167,#168,#169,#170));
#48=EDGE_LOOP('',(#171,#172,#173,#174));
#49=EDGE_LOOP('',(#175,#176,#177,#178));
#50=EDGE_LOOP('',(#179,#180,#181,#182));
#51=EDGE_LOOP('',(#183,#184,#185,#186));
#52=EDGE_LOOP('',(#187,#188,#189,#190));
#53=EDGE_LOOP('',(#191,#192,#193,#194));
#54=EDGE_LOOP('',(#195,#196,#197,#198));
#55=EDGE_LOOP('',(#199));
#56=EDGE_LOOP('',(#200));
#57=EDGE_LOOP('',(#201));
#58=EDGE_LOOP('',(#202));
#59=EDGE_LOOP('',(#203));
#60=EDGE_LOOP('',(#204));
#61=EDGE_LOOP('',(#205));
#62=EDGE_LOOP('',(#206));
#63=EDGE_LOOP('',(#207));
#64=EDGE_LOOP('',(#208));
#65=EDGE_LOOP('',(#209,#210,#211,#212));
#66=EDGE_LOOP('',(#213,#214,#215,#216));
#67=EDGE_LOOP('',(#217));
#68=EDGE_LOOP('',(#218));
#69=EDGE_LOOP('',(#219));
#70=EDGE_LOOP('',(#220));
#71=EDGE_LOOP('',(#221));
#72=EDGE_LOOP('',(#222));
#73=EDGE_LOOP('',(#223));
#74=EDGE_LOOP('',(#224));
#75=EDGE_LOOP('',(#225));
#76=EDGE_LOOP('',(#226));
#77=LINE('',#382,#87);
#78=LINE('',#388,#88);
#79=LINE('',#394,#89);
#80=LINE('',#400,#90);
#81=LINE('',#406,#91);
#82=LINE('',#412,#92);
#83=LINE('',#418,#93);
#84=LINE('',#424,#94);
#85=LINE('',#434,#95);
#86=LINE('',#438,#96);
#87=VECTOR('',#307,9.);
#88=VECTOR('',#314,9.);
#89=VECTOR('',#321,9.);
#90=VECTOR('',#328,9.);
#91=VECTOR('',#335,9.);
#92=VECTOR('',#342,9.);
#93=VECTOR('',#349,9.);
#94=VECTOR('',#356,9.);
#95=VECTOR('',#369,67.5);
#96=VECTOR('',#374,110.);
#97=CIRCLE('',#270,9.);
#98=CIRCLE('',#271,9.);
#99=CIRCLE('',#273,9.);
#100=CIRCLE('',#274,9.);
#101=CIRCLE('',#276,9.);
#102=CIRCLE('',#277,9.);
#103=CIRCLE('',#279,9.);
#104=CIRCLE('',#280,9.);
#105=CIRCLE('',#282,9.);
#106=CIRCLE('',#283,9.);
#107=CIRCLE('',#285,9.);
#108=CIRCLE('',#286,9.);
#109=CIRCLE('',#288,9.);
#110=CIRCLE('',#289,9.);
#111=CIRCLE('',#291,9.);
#112=CIRCLE('',#292,9.);
#113=CIRCLE('',#294,110.);
#114=CIRCLE('',#295,67.5);
#115=CIRCLE('',#297,67.5);
#116=CIRCLE('',#299,110.);
#117=VERTEX_POINT('',#379);
#118=VERTEX_POINT('',#381);
#119=VERTEX_POINT('',#385);
#120=VERTEX_POINT('',#387);
#121=VERTEX_POINT('',#391);
#122=VERTEX_POINT('',#393);
#123=VERTEX_POINT('',#397);
#124=VERTEX_POINT('',#399);
#125=VERTEX_POINT('',#403);
#126=VERTEX_POINT('',#405);
#127=VERTEX_POINT('',#409);
#128=VERTEX_POINT('',#411);
#129=VERTEX_POINT('',#415);
#130=VERTEX_POINT('',#417);
#131=VERTEX_POINT('',#421);
#132=VERTEX_POINT('',#423);
#133=VERTEX_POINT('',#427);
#134=VERTEX_POINT('',#429);
#135=VERTEX_POINT('',#432);
#136=VERTEX_POINT('',#436);
#137=EDGE_CURVE('',#117,#117,#97,.T.);
#138=EDGE_CURVE('',#117,#118,#77,.T.);
#139=EDGE_CURVE('',#118,#118,#98,.T.);
#140=EDGE_CURVE('',#119,#119,#99,.T.);
#141=EDGE_CURVE('',#119,#120,#78,.T.);
#142=EDGE_CURVE('',#120,#120,#100,.T.);
#143=EDGE_CURVE('',#121,#121,#101,.T.);
#144=EDGE_CURVE('',#121,#122,#79,.T.);
#145=EDGE_CURVE('',#122,#122,#102,.T.);
#146=EDGE_CURVE('',#123,#123,#103,.T.);
#147=EDGE_CURVE('',#123,#124,#80,.T.);
#148=EDGE_CURVE('',#124,#124,#104,.T.);
#149=EDGE_CURVE('',#125,#125,#105,.T.);
#150=EDGE_CURVE('',#125,#126,#81,.T.);
#151=EDGE_CURVE('',#126,#126,#106,.T.);
#152=EDGE_CURVE('',#127,#127,#107,.T.);
#153=EDGE_CURVE('',#127,#128,#82,.T.);
#154=EDGE_CURVE('',#128,#128,#108,.T.);
#155=EDGE_CURVE('',#129,#129,#109,.T.);
#156=EDGE_CURVE('',#129,#130,#83,.T.);
#157=EDGE_CURVE('',#130,#130,#110,.T.);
#158=EDGE_CURVE('',#131,#131,#111,.T.);
#159=EDGE_CURVE('',#131,#132,#84,.T.);
#160=EDGE_CURVE('',#132,#132,#112,.T.);
#161=EDGE_CURVE('',#133,#133,#113,.T.);
#162=EDGE_CURVE('',#134,#134,#114,.T.);
#163=EDGE_CURVE('',#135,#135,#115,.T.);
#164=EDGE_CURVE('',#135,#134,#85,.T.);
#165=EDGE_CURVE('',#136,#136,#116,.T.);
#166=EDGE_CURVE('',#136,#133,#86,.T.);
#167=ORIENTED_EDGE('',*,*,#137,.F.);
#168=ORIENTED_EDGE('',*,*,#138,.T.);
#169=ORIENTED_EDGE('',*,*,#139,.F.);
#170=ORIENTED_EDGE('',*,*,#138,.F.);
#171=ORIENTED_EDGE('',*,*,#140,.F.);
#172=ORIENTED_EDGE('',*,*,#141,.T.);
#173=ORIENTED_EDGE('',*,*,#142,.F.);
#174=ORIENTED_EDGE('',*,*,#141,.F.);
#175=ORIENTED_EDGE('',*,*,#143,.F.);
#176=ORIENTED_EDGE('',*,*,#144,.T.);
#177=ORIENTED_EDGE('',*,*,#145,.F.);
#178=ORIENTED_EDGE('',*,*,#144,.F.);
#179=ORIENTED_EDGE('',*,*,#146,.F.);
#180=ORIENTED_EDGE('',*,*,#147,.T.);
#181=ORIENTED_EDGE('',*,*,#148,.F.);
#182=ORIENTED_EDGE('',*,*,#147,.F.);
#183=ORIENTED_EDGE('',*,*,#149,.F.);
#184=ORIENTED_EDGE('',*,*,#150,.T.);
#185=ORIENTED_EDGE('',*,*,#151,.F.);
#186=ORIENTED_EDGE('',*,*,#150,.F.);
#187=ORIENTED_EDGE('',*,*,#152,.F.);
#188=ORIENTED_EDGE('',*,*,#153,.T.);
#189=ORIENTED_EDGE('',*,*,#154,.F.);
#190=ORIENTED_EDGE('',*,*,#153,.F.);
#191=ORIENTED_EDGE('',*,*,#155,.F.);
#192=ORIENTED_EDGE('',*,*,#156,.T.);
#193=ORIENTED_EDGE('',*,*,#157,.F.);
#194=ORIENTED_EDGE('',*,*,#156,.F.);
#195=ORIENTED_EDGE('',*,*,#158,.F.);
#196=ORIENTED_EDGE('',*,*,#159,.T.);
#197=ORIENTED_EDGE('',*,*,#160,.F.);
#198=ORIENTED_EDGE('',*,*,#159,.F.);
#199=ORIENTED_EDGE('',*,*,#161,.T.);
#200=ORIENTED_EDGE('',*,*,#139,.T.);
#201=ORIENTED_EDGE('',*,*,#142,.T.);
#202=ORIENTED_EDGE('',*,*,#145,.T.);
#203=ORIENTED_EDGE('',*,*,#148,.T.);
#204=ORIENTED_EDGE('',*,*,#151,.T.);
#205=ORIENTED_EDGE('',*,*,#154,.T.);
#206=ORIENTED_EDGE('',*,*,#157,.T.);
#207=ORIENTED_EDGE('',*,*,#160,.T.);
#208=ORIENTED_EDGE('',*,*,#162,.T.);
#209=ORIENTED_EDGE('',*,*,#163,.F.);
#210=ORIENTED_EDGE('',*,*,#164,.T.);
#211=ORIENTED_EDGE('',*,*,#162,.F.);
#212=ORIENTED_EDGE('',*,*,#164,.F.);
#213=ORIENTED_EDGE('',*,*,#165,.F.);
#214=ORIENTED_EDGE('',*,*,#166,.T.);
#215=ORIENTED_EDGE('',*,*,#161,.F.);
#216=ORIENTED_EDGE('',*,*,#166,.F.);
#217=ORIENTED_EDGE('',*,*,#165,.T.);
#218=ORIENTED_EDGE('',*,*,#137,.T.);
#219=ORIENTED_EDGE('',*,*,#140,.T.);
#220=ORIENTED_EDGE('',*,*,#143,.T.);
#221=ORIENTED_EDGE('',*,*,#146,.T.);
#222=ORIENTED_EDGE('',*,*,#149,.T.);
#223=ORIENTED_EDGE('',*,*,#152,.T.);
#224=ORIENTED_EDGE('',*,*,#155,.T.);
#225=ORIENTED_EDGE('',*,*,#158,.T.);
#226=ORIENTED_EDGE('',*,*,#163,.T.);
#227=CYLINDRICAL_SURFACE('',#269,9.);
#228=CYLINDRICAL_SURFACE('',#272,9.);
#229=CYLINDRICAL_SURFACE('',#275,9.);
#230=CYLINDRICAL_SURFACE('',#278,9.);
#231=CYLINDRICAL_SURFACE('',#281,9.);
#232=CYLINDRICAL_SURFACE('',#284,9.);
#233=CYLINDRICAL_SURFACE('',#287,9.);
#234=CYLINDRICAL_SURFACE('',#290,9.);
#235=CYLINDRICAL_SURFACE('',#296,67.5);
#236=CYLINDRICAL_SURFACE('',#298,110.);
#237=ADVANCED_FACE('',(#35),#227,.F.);
#238=ADVANCED_FACE('',(#36),#228,.F.);
#239=ADVANCED_FACE('',(#37),#229,.F.);
#240=ADVANCED_FACE('',(#38),#230,.F.);
#241=ADVANCED_FACE('',(#39),#231,.F.);
#242=ADVANCED_FACE('',(#40),#232,.F.);
#243=ADVANCED_FACE('',(#41),#233,.F.);
#244=ADVANCED_FACE('',(#42),#234,.F.);
#245=ADVANCED_FACE('',(#43,#15,#16,#17,#18,#19,#20,#21,#22,#23),#33,.F.);
#246=ADVANCED_FACE('',(#44),#235,.F.);
#247=ADVANCED_FACE('',(#45),#236,.T.);
#248=ADVANCED_FACE('',(#46,#24,#25,#26,#27,#28,#29,#30,#31,#32),#34,.T.);
#249=CLOSED_SHELL('',(#237,#238,#239,#240,#241,#242,#243,#244,#245,#246,
#247,#248));
#250=DERIVED_UNIT_ELEMENT(#252,1.);
#251=DERIVED_UNIT_ELEMENT(#445,-3.);
#252=(
MASS_UNIT()
NAMED_UNIT(*)
SI_UNIT($,.GRAM.)
);
#253=DERIVED_UNIT((#250,#251));
#254=MEASURE_REPRESENTATION_ITEM('density measure',
POSITIVE_RATIO_MEASURE(1.),#253);
#255=PROPERTY_DEFINITION_REPRESENTATION(#260,#257);
#256=PROPERTY_DEFINITION_REPRESENTATION(#261,#258);
#257=REPRESENTATION('material name',(#259),#442);
#258=REPRESENTATION('density',(#254),#442);
#259=DESCRIPTIVE_REPRESENTATION_ITEM('PP (Black)','PP (Black)');
#260=PROPERTY_DEFINITION('material property','material name',#452);
#261=PROPERTY_DEFINITION('material property','density of part',#452);
#262=DATE_TIME_ROLE('creation_date');
#263=APPLIED_DATE_AND_TIME_ASSIGNMENT(#264,#262,(#452));
#264=DATE_AND_TIME(#265,#266);
#265=CALENDAR_DATE(2021,19,10);
#266=LOCAL_TIME(0,0,0.,#267);
#267=COORDINATED_UNIVERSAL_TIME_OFFSET(0,0,.BEHIND.);
#268=AXIS2_PLACEMENT_3D('placement',#377,#301,#302);
#269=AXIS2_PLACEMENT_3D('',#378,#303,#304);
#270=AXIS2_PLACEMENT_3D('',#380,#305,#306);
#271=AXIS2_PLACEMENT_3D('',#383,#308,#309);
#272=AXIS2_PLACEMENT_3D('',#384,#310,#311);
#273=AXIS2_PLACEMENT_3D('',#386,#312,#313);
#274=AXIS2_PLACEMENT_3D('',#389,#315,#316);
#275=AXIS2_PLACEMENT_3D('',#390,#317,#318);
#276=AXIS2_PLACEMENT_3D('',#392,#319,#320);
#277=AXIS2_PLACEMENT_3D('',#395,#322,#323);
#278=AXIS2_PLACEMENT_3D('',#396,#324,#325);
#279=AXIS2_PLACEMENT_3D('',#398,#326,#327);
#280=AXIS2_PLACEMENT_3D('',#401,#329,#330);
#281=AXIS2_PLACEMENT_3D('',#402,#331,#332);
#282=AXIS2_PLACEMENT_3D('',#404,#333,#334);
#283=AXIS2_PLACEMENT_3D('',#407,#336,#337);
#284=AXIS2_PLACEMENT_3D('',#408,#338,#339);
#285=AXIS2_PLACEMENT_3D('',#410,#340,#341);
#286=AXIS2_PLACEMENT_3D('',#413,#343,#344);
#287=AXIS2_PLACEMENT_3D('',#414,#345,#346);
#288=AXIS2_PLACEMENT_3D('',#416,#347,#348);
#289=AXIS2_PLACEMENT_3D('',#419,#350,#351);
#290=AXIS2_PLACEMENT_3D('',#420,#352,#353);
#291=AXIS2_PLACEMENT_3D('',#422,#354,#355);
#292=AXIS2_PLACEMENT_3D('',#425,#357,#358);
#293=AXIS2_PLACEMENT_3D('',#426,#359,#360);
#294=AXIS2_PLACEMENT_3D('',#428,#361,#362);
#295=AXIS2_PLACEMENT_3D('',#430,#363,#364);
#296=AXIS2_PLACEMENT_3D('',#431,#365,#366);
#297=AXIS2_PLACEMENT_3D('',#433,#367,#368);
#298=AXIS2_PLACEMENT_3D('',#435,#370,#371);
#299=AXIS2_PLACEMENT_3D('',#437,#372,#373);
#300=AXIS2_PLACEMENT_3D('',#439,#375,#376);
#301=DIRECTION('axis',(0.,0.,1.));
#302=DIRECTION('refdir',(1.,0.,0.));
#303=DIRECTION('center_axis',(0.,1.,0.));
#304=DIRECTION('ref_axis',(-0.707106781186547,0.,-0.707106781186548));
#305=DIRECTION('center_axis',(0.,-1.,0.));
#306=DIRECTION('ref_axis',(-0.707106781186547,0.,-0.707106781186548));
#307=DIRECTION('',(0.,-1.,0.));
#308=DIRECTION('center_axis',(0.,1.,0.));
#309=DIRECTION('ref_axis',(-0.707106781186547,0.,-0.707106781186548));
#310=DIRECTION('center_axis',(0.,1.,0.));
#311=DIRECTION('ref_axis',(1.85037170770859E-16,0.,-1.));
#312=DIRECTION('center_axis',(0.,-1.,0.));
#313=DIRECTION('ref_axis',(1.85037170770859E-16,0.,-1.));
#314=DIRECTION('',(0.,-1.,0.));
#315=DIRECTION('center_axis',(0.,1.,0.));
#316=DIRECTION('ref_axis',(1.85037170770859E-16,0.,-1.));
#317=DIRECTION('center_axis',(0.,1.,0.));
#318=DIRECTION('ref_axis',(0.707106781186548,0.,-0.707106781186547));
#319=DIRECTION('center_axis',(0.,-1.,0.));
#320=DIRECTION('ref_axis',(0.707106781186548,0.,-0.707106781186547));
#321=DIRECTION('',(0.,-1.,0.));
#322=DIRECTION('center_axis',(0.,1.,0.));
#323=DIRECTION('ref_axis',(0.707106781186548,0.,-0.707106781186547));
#324=DIRECTION('center_axis',(0.,1.,0.));
#325=DIRECTION('ref_axis',(1.,0.,1.85037170770859E-16));
#326=DIRECTION('center_axis',(0.,-1.,0.));
#327=DIRECTION('ref_axis',(1.,0.,1.85037170770859E-16));
#328=DIRECTION('',(0.,-1.,0.));
#329=DIRECTION('center_axis',(0.,1.,0.));
#330=DIRECTION('ref_axis',(1.,0.,1.85037170770859E-16));
#331=DIRECTION('center_axis',(0.,1.,0.));
#332=DIRECTION('ref_axis',(0.707106781186547,0.,0.707106781186548));
#333=DIRECTION('center_axis',(0.,-1.,0.));
#334=DIRECTION('ref_axis',(0.707106781186547,0.,0.707106781186548));
#335=DIRECTION('',(0.,-1.,0.));
#336=DIRECTION('center_axis',(0.,1.,0.));
#337=DIRECTION('ref_axis',(0.707106781186547,0.,0.707106781186548));
#338=DIRECTION('center_axis',(0.,1.,0.));
#339=DIRECTION('ref_axis',(0.,0.,1.));
#340=DIRECTION('center_axis',(0.,-1.,0.));
#341=DIRECTION('ref_axis',(0.,0.,1.));
#342=DIRECTION('',(0.,-1.,0.));
#343=DIRECTION('center_axis',(0.,1.,0.));
#344=DIRECTION('ref_axis',(0.,0.,1.));
#345=DIRECTION('center_axis',(0.,1.,0.));
#346=DIRECTION('ref_axis',(-0.707106781186548,0.,0.707106781186548));
#347=DIRECTION('center_axis',(0.,-1.,0.));
#348=DIRECTION('ref_axis',(-0.707106781186548,0.,0.707106781186548));
#349=DIRECTION('',(0.,-1.,0.));
#350=DIRECTION('center_axis',(0.,1.,0.));
#351=DIRECTION('ref_axis',(-0.707106781186548,0.,0.707106781186548));
#352=DIRECTION('center_axis',(0.,1.,0.));
#353=DIRECTION('ref_axis',(-1.,0.,0.));
#354=DIRECTION('center_axis',(0.,-1.,0.));
#355=DIRECTION('ref_axis',(-1.,0.,0.));
#356=DIRECTION('',(0.,-1.,0.));
#357=DIRECTION('center_axis',(0.,1.,0.));
#358=DIRECTION('ref_axis',(-1.,0.,0.));
#359=DIRECTION('center_axis',(0.,1.,0.));
#360=DIRECTION('ref_axis',(0.,0.,1.));
#361=DIRECTION('center_axis',(0.,-1.,0.));
#362=DIRECTION('ref_axis',(-1.,0.,0.));
#363=DIRECTION('center_axis',(0.,1.,0.));
#364=DIRECTION('ref_axis',(1.,0.,0.));
#365=DIRECTION('center_axis',(0.,1.,0.));
#366=DIRECTION('ref_axis',(1.,0.,0.));
#367=DIRECTION('center_axis',(0.,-1.,0.));
#368=DIRECTION('ref_axis',(1.,0.,0.));
#369=DIRECTION('',(0.,-1.,0.));
#370=DIRECTION('center_axis',(0.,1.,0.));
#371=DIRECTION('ref_axis',(-1.,0.,0.));
#372=DIRECTION('center_axis',(0.,1.,0.));
#373=DIRECTION('ref_axis',(-1.,0.,0.));
#374=DIRECTION('',(0.,-1.,0.));
#375=DIRECTION('center_axis',(0.,1.,0.));
#376=DIRECTION('ref_axis',(0.,0.,1.));
#377=CARTESIAN_POINT('',(0.,0.,0.));
#378=CARTESIAN_POINT('Origin',(83.1491579260158,0.,-34.4415089128581));
#379=CARTESIAN_POINT('',(89.5131189566948,10.,-28.0775478821791));
#380=CARTESIAN_POINT('Origin',(83.1491579260158,10.,-34.4415089128581));
#381=CARTESIAN_POINT('',(89.5131189566948,-10.,-28.0775478821791));
#382=CARTESIAN_POINT('',(89.5131189566948,0.,-28.0775478821791));
#383=CARTESIAN_POINT('Origin',(83.1491579260158,-10.,-34.4415089128581));
#384=CARTESIAN_POINT('Origin',(83.1491579260158,0.,34.4415089128581));
#385=CARTESIAN_POINT('',(83.1491579260158,10.,43.4415089128581));
#386=CARTESIAN_POINT('Origin',(83.1491579260158,10.,34.4415089128581));
#387=CARTESIAN_POINT('',(83.1491579260158,-10.,43.4415089128581));
#388=CARTESIAN_POINT('',(83.1491579260158,0.,43.4415089128581));
#389=CARTESIAN_POINT('Origin',(83.1491579260158,-10.,34.4415089128581));
#390=CARTESIAN_POINT('Origin',(34.4415089128581,0.,83.1491579260158));
#391=CARTESIAN_POINT('',(28.0775478821792,10.,89.5131189566948));
#392=CARTESIAN_POINT('Origin',(34.4415089128581,10.,83.1491579260158));
#393=CARTESIAN_POINT('',(28.0775478821792,-10.,89.5131189566948));
#394=CARTESIAN_POINT('',(28.0775478821792,0.,89.5131189566948));
#395=CARTESIAN_POINT('Origin',(34.4415089128581,-10.,83.1491579260158));
#396=CARTESIAN_POINT('Origin',(-34.4415089128581,0.,83.1491579260158));
#397=CARTESIAN_POINT('',(-43.4415089128581,10.,83.1491579260158));
#398=CARTESIAN_POINT('Origin',(-34.4415089128581,10.,83.1491579260158));
#399=CARTESIAN_POINT('',(-43.4415089128581,-10.,83.1491579260158));
#400=CARTESIAN_POINT('',(-43.4415089128581,0.,83.1491579260158));
#401=CARTESIAN_POINT('Origin',(-34.4415089128581,-10.,83.1491579260158));
#402=CARTESIAN_POINT('Origin',(-83.1491579260158,0.,34.4415089128581));
#403=CARTESIAN_POINT('',(-89.5131189566948,10.,28.0775478821792));
#404=CARTESIAN_POINT('Origin',(-83.1491579260158,10.,34.4415089128581));
#405=CARTESIAN_POINT('',(-89.5131189566948,-10.,28.0775478821792));
#406=CARTESIAN_POINT('',(-89.5131189566948,0.,28.0775478821792));
#407=CARTESIAN_POINT('Origin',(-83.1491579260158,-10.,34.4415089128581));
#408=CARTESIAN_POINT('Origin',(-83.1491579260158,0.,-34.4415089128581));
#409=CARTESIAN_POINT('',(-83.1491579260158,10.,-43.4415089128581));
#410=CARTESIAN_POINT('Origin',(-83.1491579260158,10.,-34.4415089128581));
#411=CARTESIAN_POINT('',(-83.1491579260158,-10.,-43.4415089128581));
#412=CARTESIAN_POINT('',(-83.1491579260158,0.,-43.4415089128581));
#413=CARTESIAN_POINT('Origin',(-83.1491579260158,-10.,-34.4415089128581));
#414=CARTESIAN_POINT('Origin',(-34.4415089128581,0.,-83.1491579260158));
#415=CARTESIAN_POINT('',(-28.0775478821792,10.,-89.5131189566947));
#416=CARTESIAN_POINT('Origin',(-34.4415089128581,10.,-83.1491579260158));
#417=CARTESIAN_POINT('',(-28.0775478821792,-10.,-89.5131189566947));
#418=CARTESIAN_POINT('',(-28.0775478821792,0.,-89.5131189566948));
#419=CARTESIAN_POINT('Origin',(-34.4415089128581,-10.,-83.1491579260158));
#420=CARTESIAN_POINT('Origin',(34.4415089128581,0.,-83.1491579260158));
#421=CARTESIAN_POINT('',(43.4415089128581,10.,-83.1491579260158));
#422=CARTESIAN_POINT('Origin',(34.4415089128581,10.,-83.1491579260158));
#423=CARTESIAN_POINT('',(43.4415089128581,-10.,-83.1491579260158));
#424=CARTESIAN_POINT('',(43.4415089128581,0.,-83.1491579260158));
#425=CARTESIAN_POINT('Origin',(34.4415089128581,-10.,-83.1491579260158));
#426=CARTESIAN_POINT('Origin',(0.,-10.,0.));
#427=CARTESIAN_POINT('',(110.,-10.,-1.34711147906209E-14));
#428=CARTESIAN_POINT('Origin',(0.,-10.,0.));
#429=CARTESIAN_POINT('',(-67.5,-10.,8.26636589424464E-15));
#430=CARTESIAN_POINT('Origin',(0.,-10.,0.));
#431=CARTESIAN_POINT('Origin',(0.,0.,0.));
#432=CARTESIAN_POINT('',(-67.5,10.,8.26636589424464E-15));
#433=CARTESIAN_POINT('Origin',(0.,10.,0.));
#434=CARTESIAN_POINT('',(-67.5,0.,8.26636589424464E-15));
#435=CARTESIAN_POINT('Origin',(0.,0.,0.));
#436=CARTESIAN_POINT('',(110.,10.,-1.34711147906209E-14));
#437=CARTESIAN_POINT('Origin',(0.,10.,0.));
#438=CARTESIAN_POINT('',(110.,0.,-1.34711147906209E-14));
#439=CARTESIAN_POINT('Origin',(0.,10.,0.));
#440=UNCERTAINTY_MEASURE_WITH_UNIT(LENGTH_MEASURE(0.01),#444,
'DISTANCE_ACCURACY_VALUE',
'Maximum model space distance between geometric entities at asserted c
onnectivities');
#441=UNCERTAINTY_MEASURE_WITH_UNIT(LENGTH_MEASURE(0.01),#444,
'DISTANCE_ACCURACY_VALUE',
'Maximum model space distance between geometric entities at asserted c
onnectivities');
#442=(
GEOMETRIC_REPRESENTATION_CONTEXT(3)
GLOBAL_UNCERTAINTY_ASSIGNED_CONTEXT((#440))
GLOBAL_UNIT_ASSIGNED_CONTEXT((#444,#446,#447))
REPRESENTATION_CONTEXT('','3D')
);
#443=(
GEOMETRIC_REPRESENTATION_CONTEXT(3)
GLOBAL_UNCERTAINTY_ASSIGNED_CONTEXT((#441))
GLOBAL_UNIT_ASSIGNED_CONTEXT((#444,#446,#447))
REPRESENTATION_CONTEXT('','3D')
);
#444=(
LENGTH_UNIT()
NAMED_UNIT(*)
SI_UNIT(.MILLI.,.METRE.)
);
#445=(
LENGTH_UNIT()
NAMED_UNIT(*)
SI_UNIT(.CENTI.,.METRE.)
);
#446=(
NAMED_UNIT(*)
PLANE_ANGLE_UNIT()
SI_UNIT($,.RADIAN.)
);
#447=(
NAMED_UNIT(*)
SI_UNIT($,.STERADIAN.)
SOLID_ANGLE_UNIT()
);
#448=SHAPE_DEFINITION_REPRESENTATION(#449,#450);
#449=PRODUCT_DEFINITION_SHAPE('',$,#452);
#450=SHAPE_REPRESENTATION('',(#268),#442);
#451=PRODUCT_DEFINITION_CONTEXT('part definition',#456,'design');
#452=PRODUCT_DEFINITION('ODS125','ODS125',#453,#451);
#453=PRODUCT_DEFINITION_FORMATION('0',$,#458);
#454=PRODUCT_RELATED_PRODUCT_CATEGORY('ODS125','ODS125',(#458));
#455=APPLICATION_PROTOCOL_DEFINITION('international standard',
'automotive_design',2009,#456);
#456=APPLICATION_CONTEXT(
'Core Data for Automotive Mechanical Design Process');
#457=PRODUCT_CONTEXT('part definition',#456,'mechanical');
#458=PRODUCT('ODS125','ODS125',
'PP/Steel loose Flange acc. EN1092-2 PN10/16, \X\D8125/DN100',(#457));
#459=PRESENTATION_STYLE_ASSIGNMENT((#460));
#460=SURFACE_STYLE_USAGE(.BOTH.,#463);
#461=SURFACE_STYLE_RENDERING_WITH_PROPERTIES($,#467,(#462));
#462=SURFACE_STYLE_TRANSPARENT(0.);
#463=SURFACE_SIDE_STYLE('',(#464,#461));
#464=SURFACE_STYLE_FILL_AREA(#465);
#465=FILL_AREA_STYLE('',(#466));
#466=FILL_AREA_STYLE_COLOUR('',#467);
#467=COLOUR_RGB('',0.109803921568627,0.109803921568627,0.129411764705882);
ENDSEC;
END-ISO-10303-21;
