ISO-10303-21;
HEADER;
/* Generated by software containing ST-Developer
 * from STEP Tools, Inc. (www.steptools.com) 
 */

FILE_DESCRIPTION(
/* description */ (
'PP/Steel loose Flange acc. EN1092-2 PN10/16, Ø250/DN250'),
/* implementation_level */ '2;1');

FILE_NAME(
/* name */ 'ODS250',
/* time_stamp */ '2021-10-25T13:56:53+02:00',
/* author */ ('COAB Solutions'),
/* organization */ ('GPA Flowsystem'),
/* preprocessor_version */ '',
/* originating_system */ 'www
.coabsolutions.com',
/* authorisation */ '');

FILE_SCHEMA (('AUTOMOTIVE_DESIGN { 1 0 10303 214 3 1 1 }'));
ENDSEC;

DATA;
#10=MECHANICAL_DESIGN_GEOMETRIC_PRESENTATION_REPRESENTATION('',(#13),#599);
#11=SHAPE_REPRESENTATION_RELATIONSHIP('SRR','None',#606,#12);
#12=ADVANCED_BREP_SHAPE_REPRESENTATION('',(#14),#598);
#13=STYLED_ITEM('',(#615),#14);
#14=MANIFOLD_SOLID_BREP('Solid2',#341);
#15=FACE_BOUND('',#72,.T.);
#16=FACE_BOUND('',#73,.T.);
#17=FACE_BOUND('',#74,.T.);
#18=FACE_BOUND('',#75,.T.);
#19=FACE_BOUND('',#76,.T.);
#20=FACE_BOUND('',#77,.T.);
#21=FACE_BOUND('',#78,.T.);
#22=FACE_BOUND('',#79,.T.);
#23=FACE_BOUND('',#80,.T.);
#24=FACE_BOUND('',#81,.T.);
#25=FACE_BOUND('',#82,.T.);
#26=FACE_BOUND('',#83,.T.);
#27=FACE_BOUND('',#84,.T.);
#28=FACE_BOUND('',#88,.T.);
#29=FACE_BOUND('',#89,.T.);
#30=FACE_BOUND('',#90,.T.);
#31=FACE_BOUND('',#91,.T.);
#32=FACE_BOUND('',#92,.T.);
#33=FACE_BOUND('',#93,.T.);
#34=FACE_BOUND('',#94,.T.);
#35=FACE_BOUND('',#95,.T.);
#36=FACE_BOUND('',#96,.T.);
#37=FACE_BOUND('',#97,.T.);
#38=FACE_BOUND('',#98,.T.);
#39=FACE_BOUND('',#99,.T.);
#40=FACE_BOUND('',#100,.T.);
#41=PLANE('',#397);
#42=PLANE('',#404);
#43=FACE_OUTER_BOUND('',#59,.T.);
#44=FACE_OUTER_BOUND('',#60,.T.);
#45=FACE_OUTER_BOUND('',#61,.T.);
#46=FACE_OUTER_BOUND('',#62,.T.);
#47=FACE_OUTER_BOUND('',#63,.T.);
#48=FACE_OUTER_BOUND('',#64,.T.);
#49=FACE_OUTER_BOUND('',#65,.T.);
#50=FACE_OUTER_BOUND('',#66,.T.);
#51=FACE_OUTER_BOUND('',#67,.T.);
#52=FACE_OUTER_BOUND('',#68,.T.);
#53=FACE_OUTER_BOUND('',#69,.T.);
#54=FACE_OUTER_BOUND('',#70,.T.);
#55=FACE_OUTER_BOUND('',#71,.T.);
#56=FACE_OUTER_BOUND('',#85,.T.);
#57=FACE_OUTER_BOUND('',#86,.T.);
#58=FACE_OUTER_BOUND('',#87,.T.);
#59=EDGE_LOOP('',(#227,#228,#229,#230));
#60=EDGE_LOOP('',(#231,#232,#233,#234));
#61=EDGE_LOOP('',(#235,#236,#237,#238));
#62=EDGE_LOOP('',(#239,#240,#241,#242));
#63=EDGE_LOOP('',(#243,#244,#245,#246));
#64=EDGE_LOOP('',(#247,#248,#249,#250));
#65=EDGE_LOOP('',(#251,#252,#253,#254));
#66=EDGE_LOOP('',(#255,#256,#257,#258));
#67=EDGE_LOOP('',(#259,#260,#261,#262));
#68=EDGE_LOOP('',(#263,#264,#265,#266));
#69=EDGE_LOOP('',(#267,#268,#269,#270));
#70=EDGE_LOOP('',(#271,#272,#273,#274));
#71=EDGE_LOOP('',(#275));
#72=EDGE_LOOP('',(#276));
#73=EDGE_LOOP('',(#277));
#74=EDGE_LOOP('',(#278));
#75=EDGE_LOOP('',(#279));
#76=EDGE_LOOP('',(#280));
#77=EDGE_LOOP('',(#281));
#78=EDGE_LOOP('',(#282));
#79=EDGE_LOOP('',(#283));
#80=EDGE_LOOP('',(#284));
#81=EDGE_LOOP('',(#285));
#82=EDGE_LOOP('',(#286));
#83=EDGE_LOOP('',(#287));
#84=EDGE_LOOP('',(#288));
#85=EDGE_LOOP('',(#289,#290,#291,#292));
#86=EDGE_LOOP('',(#293,#294,#295,#296));
#87=EDGE_LOOP('',(#297));
#88=EDGE_LOOP('',(#298));
#89=EDGE_LOOP('',(#299));
#90=EDGE_LOOP('',(#300));
#91=EDGE_LOOP('',(#301));
#92=EDGE_LOOP('',(#302));
#93=EDGE_LOOP('',(#303));
#94=EDGE_LOOP('',(#304));
#95=EDGE_LOOP('',(#305));
#96=EDGE_LOOP('',(#306));
#97=EDGE_LOOP('',(#307));
#98=EDGE_LOOP('',(#308));
#99=EDGE_LOOP('',(#309));
#100=EDGE_LOOP('',(#310));
#101=LINE('',#514,#115);
#102=LINE('',#520,#116);
#103=LINE('',#526,#117);
#104=LINE('',#532,#118);
#105=LINE('',#538,#119);
#106=LINE('',#544,#120);
#107=LINE('',#550,#121);
#108=LINE('',#556,#122);
#109=LINE('',#562,#123);
#110=LINE('',#568,#124);
#111=LINE('',#574,#125);
#112=LINE('',#580,#126);
#113=LINE('',#590,#127);
#114=LINE('',#594,#128);
#115=VECTOR('',#411,11.);
#116=VECTOR('',#418,11.);
#117=VECTOR('',#425,11.);
#118=VECTOR('',#432,11.);
#119=VECTOR('',#439,11.);
#120=VECTOR('',#446,11.);
#121=VECTOR('',#453,11.);
#122=VECTOR('',#460,11.);
#123=VECTOR('',#467,11.);
#124=VECTOR('',#474,11.);
#125=VECTOR('',#481,11.);
#126=VECTOR('',#488,11.);
#127=VECTOR('',#501,144.);
#128=VECTOR('',#506,204.5);
#129=CIRCLE('',#362,11.);
#130=CIRCLE('',#363,11.);
#131=CIRCLE('',#365,11.);
#132=CIRCLE('',#366,11.);
#133=CIRCLE('',#368,11.);
#134=CIRCLE('',#369,11.);
#135=CIRCLE('',#371,11.);
#136=CIRCLE('',#372,11.);
#137=CIRCLE('',#374,11.);
#138=CIRCLE('',#375,11.);
#139=CIRCLE('',#377,11.);
#140=CIRCLE('',#378,11.);
#141=CIRCLE('',#380,11.);
#142=CIRCLE('',#381,11.);
#143=CIRCLE('',#383,11.);
#144=CIRCLE('',#384,11.);
#145=CIRCLE('',#386,11.);
#146=CIRCLE('',#387,11.);
#147=CIRCLE('',#389,11.);
#148=CIRCLE('',#390,11.);
#149=CIRCLE('',#392,11.);
#150=CIRCLE('',#393,11.);
#151=CIRCLE('',#395,11.);
#152=CIRCLE('',#396,11.);
#153=CIRCLE('',#398,204.5);
#154=CIRCLE('',#399,144.);
#155=CIRCLE('',#401,144.);
#156=CIRCLE('',#403,204.5);
#157=VERTEX_POINT('',#511);
#158=VERTEX_POINT('',#513);
#159=VERTEX_POINT('',#517);
#160=VERTEX_POINT('',#519);
#161=VERTEX_POINT('',#523);
#162=VERTEX_POINT('',#525);
#163=VERTEX_POINT('',#529);
#164=VERTEX_POINT('',#531);
#165=VERTEX_POINT('',#535);
#166=VERTEX_POINT('',#537);
#167=VERTEX_POINT('',#541);
#168=VERTEX_POINT('',#543);
#169=VERTEX_POINT('',#547);
#170=VERTEX_POINT('',#549);
#171=VERTEX_POINT('',#553);
#172=VERTEX_POINT('',#555);
#173=VERTEX_POINT('',#559);
#174=VERTEX_POINT('',#561);
#175=VERTEX_POINT('',#565);
#176=VERTEX_POINT('',#567);
#177=VERTEX_POINT('',#571);
#178=VERTEX_POINT('',#573);
#179=VERTEX_POINT('',#577);
#180=VERTEX_POINT('',#579);
#181=VERTEX_POINT('',#583);
#182=VERTEX_POINT('',#585);
#183=VERTEX_POINT('',#588);
#184=VERTEX_POINT('',#592);
#185=EDGE_CURVE('',#157,#157,#129,.T.);
#186=EDGE_CURVE('',#157,#158,#101,.T.);
#187=EDGE_CURVE('',#158,#158,#130,.T.);
#188=EDGE_CURVE('',#159,#159,#131,.T.);
#189=EDGE_CURVE('',#159,#160,#102,.T.);
#190=EDGE_CURVE('',#160,#160,#132,.T.);
#191=EDGE_CURVE('',#161,#161,#133,.T.);
#192=EDGE_CURVE('',#161,#162,#103,.T.);
#193=EDGE_CURVE('',#162,#162,#134,.T.);
#194=EDGE_CURVE('',#163,#163,#135,.T.);
#195=EDGE_CURVE('',#163,#164,#104,.T.);
#196=EDGE_CURVE('',#164,#164,#136,.T.);
#197=EDGE_CURVE('',#165,#165,#137,.T.);
#198=EDGE_CURVE('',#165,#166,#105,.T.);
#199=EDGE_CURVE('',#166,#166,#138,.T.);
#200=EDGE_CURVE('',#167,#167,#139,.T.);
#201=EDGE_CURVE('',#167,#168,#106,.T.);
#202=EDGE_CURVE('',#168,#168,#140,.T.);
#203=EDGE_CURVE('',#169,#169,#141,.T.);
#204=EDGE_CURVE('',#169,#170,#107,.T.);
#205=EDGE_CURVE('',#170,#170,#142,.T.);
#206=EDGE_CURVE('',#171,#171,#143,.T.);
#207=EDGE_CURVE('',#171,#172,#108,.T.);
#208=EDGE_CURVE('',#172,#172,#144,.T.);
#209=EDGE_CURVE('',#173,#173,#145,.T.);
#210=EDGE_CURVE('',#173,#174,#109,.T.);
#211=EDGE_CURVE('',#174,#174,#146,.T.);
#212=EDGE_CURVE('',#175,#175,#147,.T.);
#213=EDGE_CURVE('',#175,#176,#110,.T.);
#214=EDGE_CURVE('',#176,#176,#148,.T.);
#215=EDGE_CURVE('',#177,#177,#149,.T.);
#216=EDGE_CURVE('',#177,#178,#111,.T.);
#217=EDGE_CURVE('',#178,#178,#150,.T.);
#218=EDGE_CURVE('',#179,#179,#151,.T.);
#219=EDGE_CURVE('',#179,#180,#112,.T.);
#220=EDGE_CURVE('',#180,#180,#152,.T.);
#221=EDGE_CURVE('',#181,#181,#153,.T.);
#222=EDGE_CURVE('',#182,#182,#154,.T.);
#223=EDGE_CURVE('',#183,#183,#155,.T.);
#224=EDGE_CURVE('',#183,#182,#113,.T.);
#225=EDGE_CURVE('',#184,#184,#156,.T.);
#226=EDGE_CURVE('',#184,#181,#114,.T.);
#227=ORIENTED_EDGE('',*,*,#185,.F.);
#228=ORIENTED_EDGE('',*,*,#186,.T.);
#229=ORIENTED_EDGE('',*,*,#187,.F.);
#230=ORIENTED_EDGE('',*,*,#186,.F.);
#231=ORIENTED_EDGE('',*,*,#188,.F.);
#232=ORIENTED_EDGE('',*,*,#189,.T.);
#233=ORIENTED_EDGE('',*,*,#190,.F.);
#234=ORIENTED_EDGE('',*,*,#189,.F.);
#235=ORIENTED_EDGE('',*,*,#191,.F.);
#236=ORIENTED_EDGE('',*,*,#192,.T.);
#237=ORIENTED_EDGE('',*,*,#193,.F.);
#238=ORIENTED_EDGE('',*,*,#192,.F.);
#239=ORIENTED_EDGE('',*,*,#194,.F.);
#240=ORIENTED_EDGE('',*,*,#195,.T.);
#241=ORIENTED_EDGE('',*,*,#196,.F.);
#242=ORIENTED_EDGE('',*,*,#195,.F.);
#243=ORIENTED_EDGE('',*,*,#197,.F.);
#244=ORIENTED_EDGE('',*,*,#198,.T.);
#245=ORIENTED_EDGE('',*,*,#199,.F.);
#246=ORIENTED_EDGE('',*,*,#198,.F.);
#247=ORIENTED_EDGE('',*,*,#200,.F.);
#248=ORIENTED_EDGE('',*,*,#201,.T.);
#249=ORIENTED_EDGE('',*,*,#202,.F.);
#250=ORIENTED_EDGE('',*,*,#201,.F.);
#251=ORIENTED_EDGE('',*,*,#203,.F.);
#252=ORIENTED_EDGE('',*,*,#204,.T.);
#253=ORIENTED_EDGE('',*,*,#205,.F.);
#254=ORIENTED_EDGE('',*,*,#204,.F.);
#255=ORIENTED_EDGE('',*,*,#206,.F.);
#256=ORIENTED_EDGE('',*,*,#207,.T.);
#257=ORIENTED_EDGE('',*,*,#208,.F.);
#258=ORIENTED_EDGE('',*,*,#207,.F.);
#259=ORIENTED_EDGE('',*,*,#209,.F.);
#260=ORIENTED_EDGE('',*,*,#210,.T.);
#261=ORIENTED_EDGE('',*,*,#211,.F.);
#262=ORIENTED_EDGE('',*,*,#210,.F.);
#263=ORIENTED_EDGE('',*,*,#212,.F.);
#264=ORIENTED_EDGE('',*,*,#213,.T.);
#265=ORIENTED_EDGE('',*,*,#214,.F.);
#266=ORIENTED_EDGE('',*,*,#213,.F.);
#267=ORIENTED_EDGE('',*,*,#215,.F.);
#268=ORIENTED_EDGE('',*,*,#216,.T.);
#269=ORIENTED_EDGE('',*,*,#217,.F.);
#270=ORIENTED_EDGE('',*,*,#216,.F.);
#271=ORIENTED_EDGE('',*,*,#218,.F.);
#272=ORIENTED_EDGE('',*,*,#219,.T.);
#273=ORIENTED_EDGE('',*,*,#220,.F.);
#274=ORIENTED_EDGE('',*,*,#219,.F.);
#275=ORIENTED_EDGE('',*,*,#221,.T.);
#276=ORIENTED_EDGE('',*,*,#187,.T.);
#277=ORIENTED_EDGE('',*,*,#190,.T.);
#278=ORIENTED_EDGE('',*,*,#193,.T.);
#279=ORIENTED_EDGE('',*,*,#196,.T.);
#280=ORIENTED_EDGE('',*,*,#199,.T.);
#281=ORIENTED_EDGE('',*,*,#202,.T.);
#282=ORIENTED_EDGE('',*,*,#205,.T.);
#283=ORIENTED_EDGE('',*,*,#208,.T.);
#284=ORIENTED_EDGE('',*,*,#211,.T.);
#285=ORIENTED_EDGE('',*,*,#214,.T.);
#286=ORIENTED_EDGE('',*,*,#217,.T.);
#287=ORIENTED_EDGE('',*,*,#220,.T.);
#288=ORIENTED_EDGE('',*,*,#222,.T.);
#289=ORIENTED_EDGE('',*,*,#223,.F.);
#290=ORIENTED_EDGE('',*,*,#224,.T.);
#291=ORIENTED_EDGE('',*,*,#222,.F.);
#292=ORIENTED_EDGE('',*,*,#224,.F.);
#293=ORIENTED_EDGE('',*,*,#225,.F.);
#294=ORIENTED_EDGE('',*,*,#226,.T.);
#295=ORIENTED_EDGE('',*,*,#221,.F.);
#296=ORIENTED_EDGE('',*,*,#226,.F.);
#297=ORIENTED_EDGE('',*,*,#225,.T.);
#298=ORIENTED_EDGE('',*,*,#185,.T.);
#299=ORIENTED_EDGE('',*,*,#188,.T.);
#300=ORIENTED_EDGE('',*,*,#191,.T.);
#301=ORIENTED_EDGE('',*,*,#194,.T.);
#302=ORIENTED_EDGE('',*,*,#197,.T.);
#303=ORIENTED_EDGE('',*,*,#200,.T.);
#304=ORIENTED_EDGE('',*,*,#203,.T.);
#305=ORIENTED_EDGE('',*,*,#206,.T.);
#306=ORIENTED_EDGE('',*,*,#209,.T.);
#307=ORIENTED_EDGE('',*,*,#212,.T.);
#308=ORIENTED_EDGE('',*,*,#215,.T.);
#309=ORIENTED_EDGE('',*,*,#218,.T.);
#310=ORIENTED_EDGE('',*,*,#223,.T.);
#311=CYLINDRICAL_SURFACE('',#361,11.);
#312=CYLINDRICAL_SURFACE('',#364,11.);
#313=CYLINDRICAL_SURFACE('',#367,11.);
#314=CYLINDRICAL_SURFACE('',#370,11.);
#315=CYLINDRICAL_SURFACE('',#373,11.);
#316=CYLINDRICAL_SURFACE('',#376,11.);
#317=CYLINDRICAL_SURFACE('',#379,11.);
#318=CYLINDRICAL_SURFACE('',#382,11.);
#319=CYLINDRICAL_SURFACE('',#385,11.);
#320=CYLINDRICAL_SURFACE('',#388,11.);
#321=CYLINDRICAL_SURFACE('',#391,11.);
#322=CYLINDRICAL_SURFACE('',#394,11.);
#323=CYLINDRICAL_SURFACE('',#400,144.);
#324=CYLINDRICAL_SURFACE('',#402,204.5);
#325=ADVANCED_FACE('',(#43),#311,.F.);
#326=ADVANCED_FACE('',(#44),#312,.F.);
#327=ADVANCED_FACE('',(#45),#313,.F.);
#328=ADVANCED_FACE('',(#46),#314,.F.);
#329=ADVANCED_FACE('',(#47),#315,.F.);
#330=ADVANCED_FACE('',(#48),#316,.F.);
#331=ADVANCED_FACE('',(#49),#317,.F.);
#332=ADVANCED_FACE('',(#50),#318,.F.);
#333=ADVANCED_FACE('',(#51),#319,.F.);
#334=ADVANCED_FACE('',(#52),#320,.F.);
#335=ADVANCED_FACE('',(#53),#321,.F.);
#336=ADVANCED_FACE('',(#54),#322,.F.);
#337=ADVANCED_FACE('',(#55,#15,#16,#17,#18,#19,#20,#21,#22,#23,#24,#25,
#26,#27),#41,.F.);
#338=ADVANCED_FACE('',(#56),#323,.F.);
#339=ADVANCED_FACE('',(#57),#324,.T.);
#340=ADVANCED_FACE('',(#58,#28,#29,#30,#31,#32,#33,#34,#35,#36,#37,#38,
#39,#40),#42,.T.);
#341=CLOSED_SHELL('',(#325,#326,#327,#328,#329,#330,#331,#332,#333,#334,
#335,#336,#337,#338,#339,#340));
#342=DERIVED_UNIT_ELEMENT(#344,1.);
#343=DERIVED_UNIT_ELEMENT(#601,-3.);
#344=(
MASS_UNIT()
NAMED_UNIT(*)
SI_UNIT($,.GRAM.)
);
#345=DERIVED_UNIT((#342,#343));
#346=MEASURE_REPRESENTATION_ITEM('density measure',
POSITIVE_RATIO_MEASURE(1.),#345);
#347=PROPERTY_DEFINITION_REPRESENTATION(#352,#349);
#348=PROPERTY_DEFINITION_REPRESENTATION(#353,#350);
#349=REPRESENTATION('material name',(#351),#598);
#350=REPRESENTATION('density',(#346),#598);
#351=DESCRIPTIVE_REPRESENTATION_ITEM('PP (Black)','PP (Black)');
#352=PROPERTY_DEFINITION('material property','material name',#608);
#353=PROPERTY_DEFINITION('material property','density of part',#608);
#354=DATE_TIME_ROLE('creation_date');
#355=APPLIED_DATE_AND_TIME_ASSIGNMENT(#356,#354,(#608));
#356=DATE_AND_TIME(#357,#358);
#357=CALENDAR_DATE(2021,19,10);
#358=LOCAL_TIME(0,0,0.,#359);
#359=COORDINATED_UNIVERSAL_TIME_OFFSET(0,0,.BEHIND.);
#360=AXIS2_PLACEMENT_3D('placement',#509,#405,#406);
#361=AXIS2_PLACEMENT_3D('',#510,#407,#408);
#362=AXIS2_PLACEMENT_3D('',#512,#409,#410);
#363=AXIS2_PLACEMENT_3D('',#515,#412,#413);
#364=AXIS2_PLACEMENT_3D('',#516,#414,#415);
#365=AXIS2_PLACEMENT_3D('',#518,#416,#417);
#366=AXIS2_PLACEMENT_3D('',#521,#419,#420);
#367=AXIS2_PLACEMENT_3D('',#522,#421,#422);
#368=AXIS2_PLACEMENT_3D('',#524,#423,#424);
#369=AXIS2_PLACEMENT_3D('',#527,#426,#427);
#370=AXIS2_PLACEMENT_3D('',#528,#428,#429);
#371=AXIS2_PLACEMENT_3D('',#530,#430,#431);
#372=AXIS2_PLACEMENT_3D('',#533,#433,#434);
#373=AXIS2_PLACEMENT_3D('',#534,#435,#436);
#374=AXIS2_PLACEMENT_3D('',#536,#437,#438);
#375=AXIS2_PLACEMENT_3D('',#539,#440,#441);
#376=AXIS2_PLACEMENT_3D('',#540,#442,#443);
#377=AXIS2_PLACEMENT_3D('',#542,#444,#445);
#378=AXIS2_PLACEMENT_3D('',#545,#447,#448);
#379=AXIS2_PLACEMENT_3D('',#546,#449,#450);
#380=AXIS2_PLACEMENT_3D('',#548,#451,#452);
#381=AXIS2_PLACEMENT_3D('',#551,#454,#455);
#382=AXIS2_PLACEMENT_3D('',#552,#456,#457);
#383=AXIS2_PLACEMENT_3D('',#554,#458,#459);
#384=AXIS2_PLACEMENT_3D('',#557,#461,#462);
#385=AXIS2_PLACEMENT_3D('',#558,#463,#464);
#386=AXIS2_PLACEMENT_3D('',#560,#465,#466);
#387=AXIS2_PLACEMENT_3D('',#563,#468,#469);
#388=AXIS2_PLACEMENT_3D('',#564,#470,#471);
#389=AXIS2_PLACEMENT_3D('',#566,#472,#473);
#390=AXIS2_PLACEMENT_3D('',#569,#475,#476);
#391=AXIS2_PLACEMENT_3D('',#570,#477,#478);
#392=AXIS2_PLACEMENT_3D('',#572,#479,#480);
#393=AXIS2_PLACEMENT_3D('',#575,#482,#483);
#394=AXIS2_PLACEMENT_3D('',#576,#484,#485);
#395=AXIS2_PLACEMENT_3D('',#578,#486,#487);
#396=AXIS2_PLACEMENT_3D('',#581,#489,#490);
#397=AXIS2_PLACEMENT_3D('',#582,#491,#492);
#398=AXIS2_PLACEMENT_3D('',#584,#493,#494);
#399=AXIS2_PLACEMENT_3D('',#586,#495,#496);
#400=AXIS2_PLACEMENT_3D('',#587,#497,#498);
#401=AXIS2_PLACEMENT_3D('',#589,#499,#500);
#402=AXIS2_PLACEMENT_3D('',#591,#502,#503);
#403=AXIS2_PLACEMENT_3D('',#593,#504,#505);
#404=AXIS2_PLACEMENT_3D('',#595,#507,#508);
#405=DIRECTION('axis',(0.,0.,1.));
#406=DIRECTION('refdir',(1.,0.,0.));
#407=DIRECTION('center_axis',(0.,1.,0.));
#408=DIRECTION('ref_axis',(-0.866025403784438,0.,-0.5));
#409=DIRECTION('center_axis',(0.,-1.,0.));
#410=DIRECTION('ref_axis',(-0.866025403784438,0.,-0.5));
#411=DIRECTION('',(0.,-1.,0.));
#412=DIRECTION('center_axis',(0.,1.,0.));
#413=DIRECTION('ref_axis',(-0.866025403784438,0.,-0.5));
#414=DIRECTION('center_axis',(0.,1.,0.));
#415=DIRECTION('ref_axis',(-0.499999999999999,0.,-0.866025403784439));
#416=DIRECTION('center_axis',(0.,-1.,0.));
#417=DIRECTION('ref_axis',(-0.499999999999999,0.,-0.866025403784439));
#418=DIRECTION('',(0.,-1.,0.));
#419=DIRECTION('center_axis',(0.,1.,0.));
#420=DIRECTION('ref_axis',(-0.499999999999999,0.,-0.866025403784439));
#421=DIRECTION('center_axis',(0.,1.,0.));
#422=DIRECTION('ref_axis',(2.01858731750028E-16,0.,-1.));
#423=DIRECTION('center_axis',(0.,-1.,0.));
#424=DIRECTION('ref_axis',(2.01858731750028E-16,0.,-1.));
#425=DIRECTION('',(0.,-1.,0.));
#426=DIRECTION('center_axis',(0.,1.,0.));
#427=DIRECTION('ref_axis',(2.01858731750028E-16,0.,-1.));
#428=DIRECTION('center_axis',(0.,1.,0.));
#429=DIRECTION('ref_axis',(0.5,0.,-0.866025403784438));
#430=DIRECTION('center_axis',(0.,-1.,0.));
#431=DIRECTION('ref_axis',(0.5,0.,-0.866025403784438));
#432=DIRECTION('',(0.,-1.,0.));
#433=DIRECTION('center_axis',(0.,1.,0.));
#434=DIRECTION('ref_axis',(0.5,0.,-0.866025403784438));
#435=DIRECTION('center_axis',(0.,1.,0.));
#436=DIRECTION('ref_axis',(0.866025403784439,0.,-0.5));
#437=DIRECTION('center_axis',(0.,-1.,0.));
#438=DIRECTION('ref_axis',(0.866025403784439,0.,-0.5));
#439=DIRECTION('',(0.,-1.,0.));
#440=DIRECTION('center_axis',(0.,1.,0.));
#441=DIRECTION('ref_axis',(0.866025403784439,0.,-0.5));
#442=DIRECTION('center_axis',(0.,1.,0.));
#443=DIRECTION('ref_axis',(1.,0.,1.00929365875014E-16));
#444=DIRECTION('center_axis',(0.,-1.,0.));
#445=DIRECTION('ref_axis',(1.,0.,1.00929365875014E-16));
#446=DIRECTION('',(0.,-1.,0.));
#447=DIRECTION('center_axis',(0.,1.,0.));
#448=DIRECTION('ref_axis',(1.,0.,1.00929365875014E-16));
#449=DIRECTION('center_axis',(0.,1.,0.));
#450=DIRECTION('ref_axis',(0.866025403784438,0.,0.5));
#451=DIRECTION('center_axis',(0.,-1.,0.));
#452=DIRECTION('ref_axis',(0.866025403784438,0.,0.5));
#453=DIRECTION('',(0.,-1.,0.));
#454=DIRECTION('center_axis',(0.,1.,0.));
#455=DIRECTION('ref_axis',(0.866025403784438,0.,0.5));
#456=DIRECTION('center_axis',(0.,1.,0.));
#457=DIRECTION('ref_axis',(0.5,0.,0.866025403784439));
#458=DIRECTION('center_axis',(0.,-1.,0.));
#459=DIRECTION('ref_axis',(0.5,0.,0.866025403784439));
#460=DIRECTION('',(0.,-1.,0.));
#461=DIRECTION('center_axis',(0.,1.,0.));
#462=DIRECTION('ref_axis',(0.5,0.,0.866025403784439));
#463=DIRECTION('center_axis',(0.,1.,0.));
#464=DIRECTION('ref_axis',(-5.04646829375071E-17,0.,1.));
#465=DIRECTION('center_axis',(0.,-1.,0.));
#466=DIRECTION('ref_axis',(-5.04646829375071E-17,0.,1.));
#467=DIRECTION('',(0.,-1.,0.));
#468=DIRECTION('center_axis',(0.,1.,0.));
#469=DIRECTION('ref_axis',(-5.04646829375071E-17,0.,1.));
#470=DIRECTION('center_axis',(0.,1.,0.));
#471=DIRECTION('ref_axis',(-0.5,0.,0.866025403784439));
#472=DIRECTION('center_axis',(0.,-1.,0.));
#473=DIRECTION('ref_axis',(-0.5,0.,0.866025403784439));
#474=DIRECTION('',(0.,-1.,0.));
#475=DIRECTION('center_axis',(0.,1.,0.));
#476=DIRECTION('ref_axis',(-0.5,0.,0.866025403784439));
#477=DIRECTION('center_axis',(0.,1.,0.));
#478=DIRECTION('ref_axis',(-0.866025403784439,0.,0.5));
#479=DIRECTION('center_axis',(0.,-1.,0.));
#480=DIRECTION('ref_axis',(-0.866025403784439,0.,0.5));
#481=DIRECTION('',(0.,-1.,0.));
#482=DIRECTION('center_axis',(0.,1.,0.));
#483=DIRECTION('ref_axis',(-0.866025403784439,0.,0.5));
#484=DIRECTION('center_axis',(0.,1.,0.));
#485=DIRECTION('ref_axis',(-1.,0.,0.));
#486=DIRECTION('center_axis',(0.,-1.,0.));
#487=DIRECTION('ref_axis',(-1.,0.,0.));
#488=DIRECTION('',(0.,-1.,0.));
#489=DIRECTION('center_axis',(0.,1.,0.));
#490=DIRECTION('ref_axis',(-1.,0.,0.));
#491=DIRECTION('center_axis',(0.,1.,0.));
#492=DIRECTION('ref_axis',(0.,0.,1.));
#493=DIRECTION('center_axis',(0.,-1.,0.));
#494=DIRECTION('ref_axis',(-1.,0.,0.));
#495=DIRECTION('center_axis',(0.,1.,0.));
#496=DIRECTION('ref_axis',(1.,0.,0.));
#497=DIRECTION('center_axis',(0.,1.,0.));
#498=DIRECTION('ref_axis',(1.,0.,0.));
#499=DIRECTION('center_axis',(0.,-1.,0.));
#500=DIRECTION('ref_axis',(1.,0.,0.));
#501=DIRECTION('',(0.,-1.,0.));
#502=DIRECTION('center_axis',(0.,1.,0.));
#503=DIRECTION('ref_axis',(-1.,0.,0.));
#504=DIRECTION('center_axis',(0.,1.,0.));
#505=DIRECTION('ref_axis',(-1.,0.,0.));
#506=DIRECTION('',(0.,-1.,0.));
#507=DIRECTION('center_axis',(0.,1.,0.));
#508=DIRECTION('ref_axis',(0.,0.,1.));
#509=CARTESIAN_POINT('',(0.,0.,0.));
#510=CARTESIAN_POINT('Origin',(123.743686707646,0.,-123.743686707646));
#511=CARTESIAN_POINT('',(133.269966149275,15.,-118.243686707646));
#512=CARTESIAN_POINT('Origin',(123.743686707646,15.,-123.743686707646));
#513=CARTESIAN_POINT('',(133.269966149275,-15.,-118.243686707646));
#514=CARTESIAN_POINT('',(133.269966149275,0.,-118.243686707646));
#515=CARTESIAN_POINT('Origin',(123.743686707646,-15.,-123.743686707646));
#516=CARTESIAN_POINT('Origin',(169.037019600587,0.,-45.293332892941));
#517=CARTESIAN_POINT('',(174.537019600587,15.,-35.7670534513122));
#518=CARTESIAN_POINT('Origin',(169.037019600587,15.,-45.293332892941));
#519=CARTESIAN_POINT('',(174.537019600587,-15.,-35.7670534513122));
#520=CARTESIAN_POINT('',(174.537019600587,0.,-35.7670534513122));
#521=CARTESIAN_POINT('Origin',(169.037019600587,-15.,-45.293332892941));
#522=CARTESIAN_POINT('Origin',(169.037019600587,0.,45.2933328929412));
#523=CARTESIAN_POINT('',(169.037019600587,15.,56.2933328929412));
#524=CARTESIAN_POINT('Origin',(169.037019600587,15.,45.2933328929412));
#525=CARTESIAN_POINT('',(169.037019600587,-15.,56.2933328929412));
#526=CARTESIAN_POINT('',(169.037019600587,0.,56.2933328929412));
#527=CARTESIAN_POINT('Origin',(169.037019600587,-15.,45.2933328929412));
#528=CARTESIAN_POINT('Origin',(123.743686707646,0.,123.743686707646));
#529=CARTESIAN_POINT('',(118.243686707646,15.,133.269966149275));
#530=CARTESIAN_POINT('Origin',(123.743686707646,15.,123.743686707646));
#531=CARTESIAN_POINT('',(118.243686707646,-15.,133.269966149275));
#532=CARTESIAN_POINT('',(118.243686707646,0.,133.269966149275));
#533=CARTESIAN_POINT('Origin',(123.743686707646,-15.,123.743686707646));
#534=CARTESIAN_POINT('Origin',(45.2933328929411,0.,169.037019600587));
#535=CARTESIAN_POINT('',(35.7670534513123,15.,174.537019600587));
#536=CARTESIAN_POINT('Origin',(45.2933328929411,15.,169.037019600587));
#537=CARTESIAN_POINT('',(35.7670534513123,-15.,174.537019600587));
#538=CARTESIAN_POINT('',(35.7670534513123,0.,174.537019600587));
#539=CARTESIAN_POINT('Origin',(45.2933328929411,-15.,169.037019600587));
#540=CARTESIAN_POINT('Origin',(-45.2933328929411,0.,169.037019600587));
#541=CARTESIAN_POINT('',(-56.2933328929411,15.,169.037019600587));
#542=CARTESIAN_POINT('Origin',(-45.2933328929411,15.,169.037019600587));
#543=CARTESIAN_POINT('',(-56.2933328929411,-15.,169.037019600587));
#544=CARTESIAN_POINT('',(-56.2933328929411,0.,169.037019600587));
#545=CARTESIAN_POINT('Origin',(-45.2933328929411,-15.,169.037019600587));
#546=CARTESIAN_POINT('Origin',(-123.743686707646,0.,123.743686707646));
#547=CARTESIAN_POINT('',(-133.269966149275,15.,118.243686707646));
#548=CARTESIAN_POINT('Origin',(-123.743686707646,15.,123.743686707646));
#549=CARTESIAN_POINT('',(-133.269966149275,-15.,118.243686707646));
#550=CARTESIAN_POINT('',(-133.269966149275,0.,118.243686707646));
#551=CARTESIAN_POINT('Origin',(-123.743686707646,-15.,123.743686707646));
#552=CARTESIAN_POINT('Origin',(-169.037019600587,0.,45.2933328929411));
#553=CARTESIAN_POINT('',(-174.537019600587,15.,35.7670534513123));
#554=CARTESIAN_POINT('Origin',(-169.037019600587,15.,45.2933328929411));
#555=CARTESIAN_POINT('',(-174.537019600587,-15.,35.7670534513123));
#556=CARTESIAN_POINT('',(-174.537019600587,0.,35.7670534513123));
#557=CARTESIAN_POINT('Origin',(-169.037019600587,-15.,45.2933328929411));
#558=CARTESIAN_POINT('Origin',(-169.037019600587,0.,-45.2933328929411));
#559=CARTESIAN_POINT('',(-169.037019600587,15.,-56.2933328929411));
#560=CARTESIAN_POINT('Origin',(-169.037019600587,15.,-45.2933328929411));
#561=CARTESIAN_POINT('',(-169.037019600587,-15.,-56.2933328929411));
#562=CARTESIAN_POINT('',(-169.037019600587,0.,-56.2933328929412));
#563=CARTESIAN_POINT('Origin',(-169.037019600587,-15.,-45.2933328929411));
#564=CARTESIAN_POINT('Origin',(-123.743686707646,0.,-123.743686707646));
#565=CARTESIAN_POINT('',(-118.243686707646,15.,-133.269966149275));
#566=CARTESIAN_POINT('Origin',(-123.743686707646,15.,-123.743686707646));
#567=CARTESIAN_POINT('',(-118.243686707646,-15.,-133.269966149275));
#568=CARTESIAN_POINT('',(-118.243686707646,0.,-133.269966149275));
#569=CARTESIAN_POINT('Origin',(-123.743686707646,-15.,-123.743686707646));
#570=CARTESIAN_POINT('Origin',(-45.2933328929411,0.,-169.037019600587));
#571=CARTESIAN_POINT('',(-35.7670534513123,15.,-174.537019600587));
#572=CARTESIAN_POINT('Origin',(-45.2933328929411,15.,-169.037019600587));
#573=CARTESIAN_POINT('',(-35.7670534513123,-15.,-174.537019600587));
#574=CARTESIAN_POINT('',(-35.7670534513123,0.,-174.537019600587));
#575=CARTESIAN_POINT('Origin',(-45.2933328929411,-15.,-169.037019600587));
#576=CARTESIAN_POINT('Origin',(45.2933328929411,0.,-169.037019600587));
#577=CARTESIAN_POINT('',(56.2933328929411,15.,-169.037019600587));
#578=CARTESIAN_POINT('Origin',(45.2933328929411,15.,-169.037019600587));
#579=CARTESIAN_POINT('',(56.2933328929411,-15.,-169.037019600587));
#580=CARTESIAN_POINT('',(56.2933328929411,0.,-169.037019600587));
#581=CARTESIAN_POINT('Origin',(45.2933328929411,-15.,-169.037019600587));
#582=CARTESIAN_POINT('Origin',(0.,-15.,0.));
#583=CARTESIAN_POINT('',(204.5,-15.,-2.50440270425634E-14));
#584=CARTESIAN_POINT('Origin',(0.,-15.,0.));
#585=CARTESIAN_POINT('',(-144.,-15.,1.76349139077219E-14));
#586=CARTESIAN_POINT('Origin',(0.,-15.,0.));
#587=CARTESIAN_POINT('Origin',(0.,0.,0.));
#588=CARTESIAN_POINT('',(-144.,15.,1.76349139077219E-14));
#589=CARTESIAN_POINT('Origin',(0.,15.,0.));
#590=CARTESIAN_POINT('',(-144.,0.,1.76349139077219E-14));
#591=CARTESIAN_POINT('Origin',(0.,0.,0.));
#592=CARTESIAN_POINT('',(204.5,15.,-2.50440270425634E-14));
#593=CARTESIAN_POINT('Origin',(0.,15.,0.));
#594=CARTESIAN_POINT('',(204.5,0.,-2.50440270425634E-14));
#595=CARTESIAN_POINT('Origin',(0.,15.,0.));
#596=UNCERTAINTY_MEASURE_WITH_UNIT(LENGTH_MEASURE(0.01),#600,
'DISTANCE_ACCURACY_VALUE',
'Maximum model space distance between geometric entities at asserted c
onnectivities');
#597=UNCERTAINTY_MEASURE_WITH_UNIT(LENGTH_MEASURE(0.01),#600,
'DISTANCE_ACCURACY_VALUE',
'Maximum model space distance between geometric entities at asserted c
onnectivities');
#598=(
GEOMETRIC_REPRESENTATION_CONTEXT(3)
GLOBAL_UNCERTAINTY_ASSIGNED_CONTEXT((#596))
GLOBAL_UNIT_ASSIGNED_CONTEXT((#600,#602,#603))
REPRESENTATION_CONTEXT('','3D')
);
#599=(
GEOMETRIC_REPRESENTATION_CONTEXT(3)
GLOBAL_UNCERTAINTY_ASSIGNED_CONTEXT((#597))
GLOBAL_UNIT_ASSIGNED_CONTEXT((#600,#602,#603))
REPRESENTATION_CONTEXT('','3D')
);
#600=(
LENGTH_UNIT()
NAMED_UNIT(*)
SI_UNIT(.MILLI.,.METRE.)
);
#601=(
LENGTH_UNIT()
NAMED_UNIT(*)
SI_UNIT(.CENTI.,.METRE.)
);
#602=(
NAMED_UNIT(*)
PLANE_ANGLE_UNIT()
SI_UNIT($,.RADIAN.)
);
#603=(
NAMED_UNIT(*)
SI_UNIT($,.STERADIAN.)
SOLID_ANGLE_UNIT()
);
#604=SHAPE_DEFINITION_REPRESENTATION(#605,#606);
#605=PRODUCT_DEFINITION_SHAPE('',$,#608);
#606=SHAPE_REPRESENTATION('',(#360),#598);
#607=PRODUCT_DEFINITION_CONTEXT('part definition',#612,'design');
#608=PRODUCT_DEFINITION('ODS250','ODS250',#609,#607);
#609=PRODUCT_DEFINITION_FORMATION('0',$,#614);
#610=PRODUCT_RELATED_PRODUCT_CATEGORY('ODS250','ODS250',(#614));
#611=APPLICATION_PROTOCOL_DEFINITION('international standard',
'automotive_design',2009,#612);
#612=APPLICATION_CONTEXT(
'Core Data for Automotive Mechanical Design Process');
#613=PRODUCT_CONTEXT('part definition',#612,'mechanical');
#614=PRODUCT('ODS250','ODS250',
'PP/Steel loose Flange acc. EN1092-2 PN10/16, \X\D8250/DN250',(#613));
#615=PRESENTATION_STYLE_ASSIGNMENT((#616));
#616=SURFACE_STYLE_USAGE(.BOTH.,#619);
#617=SURFACE_STYLE_RENDERING_WITH_PROPERTIES($,#623,(#618));
#618=SURFACE_STYLE_TRANSPARENT(0.);
#619=SURFACE_SIDE_STYLE('',(#620,#617));
#620=SURFACE_STYLE_FILL_AREA(#621);
#621=FILL_AREA_STYLE('',(#622));
#622=FILL_AREA_STYLE_COLOUR('',#623);
#623=COLOUR_RGB('',0.109803921568627,0.109803921568627,0.129411764705882);
ENDSEC;
END-ISO-10303-21;
