ISO-10303-21;
HEADER;
/* Generated by software containing ST-Developer
 * from STEP Tools, Inc. (www.steptools.com) 
 */

FILE_DESCRIPTION(
/* description */ (
'PE100 Stub Flange for type 560/570 Check Valve with short spigot, Ø75, SDR11 PN16'),
/* implementation_level */ '2;1');

FILE_NAME(
/* name */ 
'QBSE11-075',
/* time_stamp */ '2022-04-05T16:15:40+02:00',
/* author */ ('COAB Solutions'),
/* organization */ ('GPA Flowsystem'),
/* preprocessor_version */ 'ST-DEVELOPER v18.1',
/* originating_system */ 'www.coabsolutions.com',
/* authorisation */ '');

FILE_SCHEMA (('AUTOMOTIVE_DESIGN { 1 0 10303 214 3 1 1 }'));
ENDSEC;

DATA;
#10=MECHANICAL_DESIGN_GEOMETRIC_PRESENTATION_REPRESENTATION('',(#13),#312);
#11=SHAPE_REPRESENTATION_RELATIONSHIP('SRR','None',#319,#12);
#12=ADVANCED_BREP_SHAPE_REPRESENTATION('',(#14),#311);
#13=STYLED_ITEM('',(#328),#14);
#14=MANIFOLD_SOLID_BREP('Solid2',#164);
#15=CONICAL_SURFACE('',#196,41.25,0.785398163397448);
#16=CONICAL_SURFACE('',#203,32.85,0.785398163397448);
#17=FACE_BOUND('',#56,.T.);
#18=FACE_BOUND('',#61,.T.);
#19=FACE_BOUND('',#66,.T.);
#20=PLANE('',#191);
#21=PLANE('',#199);
#22=PLANE('',#207);
#23=LINE('',#276,#30);
#24=LINE('',#285,#31);
#25=LINE('',#288,#32);
#26=LINE('',#292,#33);
#27=LINE('',#298,#34);
#28=LINE('',#302,#35);
#29=LINE('',#306,#36);
#30=VECTOR('',#222,45.);
#31=VECTOR('',#233,37.5);
#32=VECTOR('',#238,41.25);
#33=VECTOR('',#243,62.5);
#34=VECTOR('',#250,35.);
#35=VECTOR('',#255,32.85);
#36=VECTOR('',#260,30.7);
#37=CYLINDRICAL_SURFACE('',#189,45.);
#38=CYLINDRICAL_SURFACE('',#193,37.5);
#39=CYLINDRICAL_SURFACE('',#197,62.5);
#40=CYLINDRICAL_SURFACE('',#201,35.);
#41=CYLINDRICAL_SURFACE('',#205,30.7);
#42=FACE_OUTER_BOUND('',#53,.T.);
#43=FACE_OUTER_BOUND('',#54,.T.);
#44=FACE_OUTER_BOUND('',#55,.T.);
#45=FACE_OUTER_BOUND('',#57,.T.);
#46=FACE_OUTER_BOUND('',#58,.T.);
#47=FACE_OUTER_BOUND('',#59,.T.);
#48=FACE_OUTER_BOUND('',#60,.T.);
#49=FACE_OUTER_BOUND('',#62,.T.);
#50=FACE_OUTER_BOUND('',#63,.T.);
#51=FACE_OUTER_BOUND('',#64,.T.);
#52=FACE_OUTER_BOUND('',#65,.T.);
#53=EDGE_LOOP('',(#112,#113,#114,#115,#116));
#54=EDGE_LOOP('',(#117,#118,#119,#120,#121));
#55=EDGE_LOOP('',(#122));
#56=EDGE_LOOP('',(#123));
#57=EDGE_LOOP('',(#124,#125,#126,#127));
#58=EDGE_LOOP('',(#128,#129,#130,#131));
#59=EDGE_LOOP('',(#132,#133,#134,#135));
#60=EDGE_LOOP('',(#136));
#61=EDGE_LOOP('',(#137));
#62=EDGE_LOOP('',(#138,#139,#140,#141));
#63=EDGE_LOOP('',(#142,#143,#144,#145));
#64=EDGE_LOOP('',(#146,#147,#148,#149));
#65=EDGE_LOOP('',(#150));
#66=EDGE_LOOP('',(#151));
#67=CIRCLE('',#185,45.);
#68=CIRCLE('',#186,2.);
#69=CIRCLE('',#187,47.);
#70=CIRCLE('',#188,45.);
#71=CIRCLE('',#190,45.);
#72=CIRCLE('',#192,62.5);
#73=CIRCLE('',#194,37.5);
#74=CIRCLE('',#195,37.5);
#75=CIRCLE('',#198,62.5);
#76=CIRCLE('',#200,35.);
#77=CIRCLE('',#202,35.);
#78=CIRCLE('',#204,30.7);
#79=CIRCLE('',#206,30.7);
#80=VERTEX_POINT('',#267);
#81=VERTEX_POINT('',#268);
#82=VERTEX_POINT('',#270);
#83=VERTEX_POINT('',#275);
#84=VERTEX_POINT('',#279);
#85=VERTEX_POINT('',#282);
#86=VERTEX_POINT('',#284);
#87=VERTEX_POINT('',#290);
#88=VERTEX_POINT('',#294);
#89=VERTEX_POINT('',#297);
#90=VERTEX_POINT('',#301);
#91=VERTEX_POINT('',#305);
#92=EDGE_CURVE('',#80,#81,#67,.T.);
#93=EDGE_CURVE('',#81,#82,#68,.T.);
#94=EDGE_CURVE('',#82,#82,#69,.T.);
#95=EDGE_CURVE('',#81,#80,#70,.T.);
#96=EDGE_CURVE('',#80,#83,#23,.T.);
#97=EDGE_CURVE('',#83,#83,#71,.T.);
#98=EDGE_CURVE('',#84,#84,#72,.T.);
#99=EDGE_CURVE('',#85,#85,#73,.T.);
#100=EDGE_CURVE('',#85,#86,#24,.T.);
#101=EDGE_CURVE('',#86,#86,#74,.T.);
#102=EDGE_CURVE('',#83,#85,#25,.T.);
#103=EDGE_CURVE('',#87,#87,#75,.T.);
#104=EDGE_CURVE('',#87,#84,#26,.T.);
#105=EDGE_CURVE('',#88,#88,#76,.T.);
#106=EDGE_CURVE('',#88,#89,#27,.T.);
#107=EDGE_CURVE('',#89,#89,#77,.T.);
#108=EDGE_CURVE('',#89,#90,#28,.T.);
#109=EDGE_CURVE('',#90,#90,#78,.T.);
#110=EDGE_CURVE('',#90,#91,#29,.T.);
#111=EDGE_CURVE('',#91,#91,#79,.T.);
#112=ORIENTED_EDGE('',*,*,#92,.T.);
#113=ORIENTED_EDGE('',*,*,#93,.T.);
#114=ORIENTED_EDGE('',*,*,#94,.T.);
#115=ORIENTED_EDGE('',*,*,#93,.F.);
#116=ORIENTED_EDGE('',*,*,#95,.T.);
#117=ORIENTED_EDGE('',*,*,#92,.F.);
#118=ORIENTED_EDGE('',*,*,#96,.T.);
#119=ORIENTED_EDGE('',*,*,#97,.T.);
#120=ORIENTED_EDGE('',*,*,#96,.F.);
#121=ORIENTED_EDGE('',*,*,#95,.F.);
#122=ORIENTED_EDGE('',*,*,#98,.F.);
#123=ORIENTED_EDGE('',*,*,#94,.F.);
#124=ORIENTED_EDGE('',*,*,#99,.F.);
#125=ORIENTED_EDGE('',*,*,#100,.T.);
#126=ORIENTED_EDGE('',*,*,#101,.T.);
#127=ORIENTED_EDGE('',*,*,#100,.F.);
#128=ORIENTED_EDGE('',*,*,#97,.F.);
#129=ORIENTED_EDGE('',*,*,#102,.T.);
#130=ORIENTED_EDGE('',*,*,#99,.T.);
#131=ORIENTED_EDGE('',*,*,#102,.F.);
#132=ORIENTED_EDGE('',*,*,#103,.F.);
#133=ORIENTED_EDGE('',*,*,#104,.T.);
#134=ORIENTED_EDGE('',*,*,#98,.T.);
#135=ORIENTED_EDGE('',*,*,#104,.F.);
#136=ORIENTED_EDGE('',*,*,#103,.T.);
#137=ORIENTED_EDGE('',*,*,#105,.F.);
#138=ORIENTED_EDGE('',*,*,#105,.T.);
#139=ORIENTED_EDGE('',*,*,#106,.T.);
#140=ORIENTED_EDGE('',*,*,#107,.F.);
#141=ORIENTED_EDGE('',*,*,#106,.F.);
#142=ORIENTED_EDGE('',*,*,#107,.T.);
#143=ORIENTED_EDGE('',*,*,#108,.T.);
#144=ORIENTED_EDGE('',*,*,#109,.F.);
#145=ORIENTED_EDGE('',*,*,#108,.F.);
#146=ORIENTED_EDGE('',*,*,#109,.T.);
#147=ORIENTED_EDGE('',*,*,#110,.T.);
#148=ORIENTED_EDGE('',*,*,#111,.F.);
#149=ORIENTED_EDGE('',*,*,#110,.F.);
#150=ORIENTED_EDGE('',*,*,#101,.F.);
#151=ORIENTED_EDGE('',*,*,#111,.T.);
#152=TOROIDAL_SURFACE('',#184,47.,2.);
#153=ADVANCED_FACE('',(#42),#152,.F.);
#154=ADVANCED_FACE('',(#43),#37,.T.);
#155=ADVANCED_FACE('',(#44,#17),#20,.T.);
#156=ADVANCED_FACE('',(#45),#38,.T.);
#157=ADVANCED_FACE('',(#46),#15,.T.);
#158=ADVANCED_FACE('',(#47),#39,.T.);
#159=ADVANCED_FACE('',(#48,#18),#21,.T.);
#160=ADVANCED_FACE('',(#49),#40,.F.);
#161=ADVANCED_FACE('',(#50),#16,.F.);
#162=ADVANCED_FACE('',(#51),#41,.F.);
#163=ADVANCED_FACE('',(#52,#19),#22,.T.);
#164=CLOSED_SHELL('',(#153,#154,#155,#156,#157,#158,#159,#160,#161,#162,
#163));
#165=DERIVED_UNIT_ELEMENT(#167,1.);
#166=DERIVED_UNIT_ELEMENT(#314,-3.);
#167=(
MASS_UNIT()
NAMED_UNIT(*)
SI_UNIT($,.GRAM.)
);
#168=DERIVED_UNIT((#165,#166));
#169=MEASURE_REPRESENTATION_ITEM('density measure',
POSITIVE_RATIO_MEASURE(1.),#168);
#170=PROPERTY_DEFINITION_REPRESENTATION(#175,#172);
#171=PROPERTY_DEFINITION_REPRESENTATION(#176,#173);
#172=REPRESENTATION('material name',(#174),#311);
#173=REPRESENTATION('density',(#169),#311);
#174=DESCRIPTIVE_REPRESENTATION_ITEM('PE','PE');
#175=PROPERTY_DEFINITION('material property','material name',#321);
#176=PROPERTY_DEFINITION('material property','density of part',#321);
#177=DATE_TIME_ROLE('creation_date');
#178=APPLIED_DATE_AND_TIME_ASSIGNMENT(#179,#177,(#321));
#179=DATE_AND_TIME(#180,#181);
#180=CALENDAR_DATE(2021,19,10);
#181=LOCAL_TIME(0,0,0.,#182);
#182=COORDINATED_UNIVERSAL_TIME_OFFSET(0,0,.BEHIND.);
#183=AXIS2_PLACEMENT_3D('placement',#265,#208,#209);
#184=AXIS2_PLACEMENT_3D('',#266,#210,#211);
#185=AXIS2_PLACEMENT_3D('',#269,#212,#213);
#186=AXIS2_PLACEMENT_3D('',#271,#214,#215);
#187=AXIS2_PLACEMENT_3D('',#272,#216,#217);
#188=AXIS2_PLACEMENT_3D('',#273,#218,#219);
#189=AXIS2_PLACEMENT_3D('',#274,#220,#221);
#190=AXIS2_PLACEMENT_3D('',#277,#223,#224);
#191=AXIS2_PLACEMENT_3D('',#278,#225,#226);
#192=AXIS2_PLACEMENT_3D('',#280,#227,#228);
#193=AXIS2_PLACEMENT_3D('',#281,#229,#230);
#194=AXIS2_PLACEMENT_3D('',#283,#231,#232);
#195=AXIS2_PLACEMENT_3D('',#286,#234,#235);
#196=AXIS2_PLACEMENT_3D('',#287,#236,#237);
#197=AXIS2_PLACEMENT_3D('',#289,#239,#240);
#198=AXIS2_PLACEMENT_3D('',#291,#241,#242);
#199=AXIS2_PLACEMENT_3D('',#293,#244,#245);
#200=AXIS2_PLACEMENT_3D('',#295,#246,#247);
#201=AXIS2_PLACEMENT_3D('',#296,#248,#249);
#202=AXIS2_PLACEMENT_3D('',#299,#251,#252);
#203=AXIS2_PLACEMENT_3D('',#300,#253,#254);
#204=AXIS2_PLACEMENT_3D('',#303,#256,#257);
#205=AXIS2_PLACEMENT_3D('',#304,#258,#259);
#206=AXIS2_PLACEMENT_3D('',#307,#261,#262);
#207=AXIS2_PLACEMENT_3D('',#308,#263,#264);
#208=DIRECTION('axis',(0.,0.,1.));
#209=DIRECTION('refdir',(1.,0.,0.));
#210=DIRECTION('center_axis',(1.,0.,0.));
#211=DIRECTION('ref_axis',(0.,0.,-1.));
#212=DIRECTION('center_axis',(1.,0.,0.));
#213=DIRECTION('ref_axis',(0.,-1.,1.83697019872103E-16));
#214=DIRECTION('center_axis',(0.,-1.,-1.22464679914735E-16));
#215=DIRECTION('ref_axis',(0.,-1.22464679914735E-16,1.));
#216=DIRECTION('center_axis',(-1.,0.,0.));
#217=DIRECTION('ref_axis',(0.,-1.,1.83697019872103E-16));
#218=DIRECTION('center_axis',(1.,0.,0.));
#219=DIRECTION('ref_axis',(0.,-1.,1.83697019872103E-16));
#220=DIRECTION('center_axis',(1.,0.,0.));
#221=DIRECTION('ref_axis',(0.,1.,0.));
#222=DIRECTION('',(-1.,0.,0.));
#223=DIRECTION('center_axis',(1.,0.,0.));
#224=DIRECTION('ref_axis',(0.,0.,-1.));
#225=DIRECTION('center_axis',(-1.,0.,0.));
#226=DIRECTION('ref_axis',(0.,0.,1.));
#227=DIRECTION('center_axis',(1.,0.,0.));
#228=DIRECTION('ref_axis',(0.,0.,-1.));
#229=DIRECTION('center_axis',(1.,0.,0.));
#230=DIRECTION('ref_axis',(0.,1.,0.));
#231=DIRECTION('center_axis',(1.,0.,0.));
#232=DIRECTION('ref_axis',(0.,0.,-1.));
#233=DIRECTION('',(-1.,0.,0.));
#234=DIRECTION('center_axis',(1.,0.,0.));
#235=DIRECTION('ref_axis',(0.,0.,-1.));
#236=DIRECTION('center_axis',(1.,0.,0.));
#237=DIRECTION('ref_axis',(0.,1.,0.));
#238=DIRECTION('',(-0.707106781186548,0.707106781186548,8.65956056235493E-17));
#239=DIRECTION('center_axis',(1.,0.,0.));
#240=DIRECTION('ref_axis',(0.,1.,0.));
#241=DIRECTION('center_axis',(1.,0.,0.));
#242=DIRECTION('ref_axis',(0.,0.,-1.));
#243=DIRECTION('',(-1.,0.,0.));
#244=DIRECTION('center_axis',(1.,0.,0.));
#245=DIRECTION('ref_axis',(0.,0.,-1.));
#246=DIRECTION('center_axis',(1.,0.,0.));
#247=DIRECTION('ref_axis',(0.,0.,-1.));
#248=DIRECTION('center_axis',(1.,0.,0.));
#249=DIRECTION('ref_axis',(0.,1.,0.));
#250=DIRECTION('',(-1.,0.,0.));
#251=DIRECTION('center_axis',(1.,0.,0.));
#252=DIRECTION('ref_axis',(0.,0.,-1.));
#253=DIRECTION('center_axis',(1.,0.,0.));
#254=DIRECTION('ref_axis',(0.,1.,0.));
#255=DIRECTION('',(-0.707106781186548,0.707106781186547,8.65956056235493E-17));
#256=DIRECTION('center_axis',(1.,0.,0.));
#257=DIRECTION('ref_axis',(0.,0.,-1.));
#258=DIRECTION('center_axis',(1.,0.,0.));
#259=DIRECTION('ref_axis',(0.,1.,0.));
#260=DIRECTION('',(-1.,0.,0.));
#261=DIRECTION('center_axis',(1.,0.,0.));
#262=DIRECTION('ref_axis',(0.,0.,-1.));
#263=DIRECTION('center_axis',(-1.,0.,0.));
#264=DIRECTION('ref_axis',(0.,0.,1.));
#265=CARTESIAN_POINT('',(0.,0.,0.));
#266=CARTESIAN_POINT('Origin',(60.,0.,0.));
#267=CARTESIAN_POINT('',(60.,-45.,-5.51091059616309E-15));
#268=CARTESIAN_POINT('',(60.,-5.51091059616309E-15,45.));
#269=CARTESIAN_POINT('Origin',(60.,0.,0.));
#270=CARTESIAN_POINT('',(62.,-5.75583995599256E-15,47.));
#271=CARTESIAN_POINT('Origin',(60.,-5.75583995599256E-15,47.));
#272=CARTESIAN_POINT('Origin',(62.,0.,0.));
#273=CARTESIAN_POINT('Origin',(60.,0.,0.));
#274=CARTESIAN_POINT('Origin',(49.75,0.,0.));
#275=CARTESIAN_POINT('',(37.5,-45.,-5.51091059616309E-15));
#276=CARTESIAN_POINT('',(49.75,-45.,-5.51091059616309E-15));
#277=CARTESIAN_POINT('Origin',(37.5,0.,0.));
#278=CARTESIAN_POINT('Origin',(62.,62.5,0.));
#279=CARTESIAN_POINT('',(62.,-62.5,-7.65404249467096E-15));
#280=CARTESIAN_POINT('Origin',(62.,0.,0.));
#281=CARTESIAN_POINT('Origin',(15.,0.,0.));
#282=CARTESIAN_POINT('',(30.,-37.5,-4.59242549680258E-15));
#283=CARTESIAN_POINT('Origin',(30.,0.,0.));
#284=CARTESIAN_POINT('',(-4.44089209850063E-15,-37.5,-4.59242549680258E-15));
#285=CARTESIAN_POINT('',(15.,-37.5,-4.59242549680258E-15));
#286=CARTESIAN_POINT('Origin',(-3.46760305747933E-15,0.,0.));
#287=CARTESIAN_POINT('Origin',(33.75,0.,0.));
#288=CARTESIAN_POINT('',(33.75,-41.25,-5.05166804648283E-15));
#289=CARTESIAN_POINT('Origin',(70.,0.,0.));
#290=CARTESIAN_POINT('',(78.,-62.5,-7.65404249467096E-15));
#291=CARTESIAN_POINT('Origin',(78.,0.,0.));
#292=CARTESIAN_POINT('',(70.,-62.5,-7.65404249467096E-15));
#293=CARTESIAN_POINT('Origin',(78.,35.,0.));
#294=CARTESIAN_POINT('',(78.,-35.,-4.28626379701574E-15));
#295=CARTESIAN_POINT('Origin',(78.,0.,0.));
#296=CARTESIAN_POINT('Origin',(59.,0.,0.));
#297=CARTESIAN_POINT('',(40.,-35.,-4.28626379701574E-15));
#298=CARTESIAN_POINT('',(59.,-35.,-4.28626379701574E-15));
#299=CARTESIAN_POINT('Origin',(40.,0.,0.));
#300=CARTESIAN_POINT('Origin',(37.85,0.,0.));
#301=CARTESIAN_POINT('',(35.7,-30.7,-3.75966567338237E-15));
#302=CARTESIAN_POINT('',(37.85,-32.85,-4.02296473519905E-15));
#303=CARTESIAN_POINT('Origin',(35.7,0.,0.));
#304=CARTESIAN_POINT('Origin',(17.85,0.,0.));
#305=CARTESIAN_POINT('',(0.,-30.7,-3.75966567338237E-15));
#306=CARTESIAN_POINT('',(17.85,-30.7,-3.75966567338237E-15));
#307=CARTESIAN_POINT('Origin',(0.,0.,0.));
#308=CARTESIAN_POINT('Origin',(-3.46760305747933E-15,37.5,0.));
#309=UNCERTAINTY_MEASURE_WITH_UNIT(LENGTH_MEASURE(0.01),#313,
'DISTANCE_ACCURACY_VALUE',
'Maximum model space distance between geometric entities at asserted c
onnectivities');
#310=UNCERTAINTY_MEASURE_WITH_UNIT(LENGTH_MEASURE(0.01),#313,
'DISTANCE_ACCURACY_VALUE',
'Maximum model space distance between geometric entities at asserted c
onnectivities');
#311=(
GEOMETRIC_REPRESENTATION_CONTEXT(3)
GLOBAL_UNCERTAINTY_ASSIGNED_CONTEXT((#309))
GLOBAL_UNIT_ASSIGNED_CONTEXT((#313,#315,#316))
REPRESENTATION_CONTEXT('','3D')
);
#312=(
GEOMETRIC_REPRESENTATION_CONTEXT(3)
GLOBAL_UNCERTAINTY_ASSIGNED_CONTEXT((#310))
GLOBAL_UNIT_ASSIGNED_CONTEXT((#313,#315,#316))
REPRESENTATION_CONTEXT('','3D')
);
#313=(
LENGTH_UNIT()
NAMED_UNIT(*)
SI_UNIT(.MILLI.,.METRE.)
);
#314=(
LENGTH_UNIT()
NAMED_UNIT(*)
SI_UNIT(.CENTI.,.METRE.)
);
#315=(
NAMED_UNIT(*)
PLANE_ANGLE_UNIT()
SI_UNIT($,.RADIAN.)
);
#316=(
NAMED_UNIT(*)
SI_UNIT($,.STERADIAN.)
SOLID_ANGLE_UNIT()
);
#317=SHAPE_DEFINITION_REPRESENTATION(#318,#319);
#318=PRODUCT_DEFINITION_SHAPE('',$,#321);
#319=SHAPE_REPRESENTATION('',(#183),#311);
#320=PRODUCT_DEFINITION_CONTEXT('part definition',#325,'design');
#321=PRODUCT_DEFINITION('QBSE11-075','QBSE11-075',#322,#320);
#322=PRODUCT_DEFINITION_FORMATION('0',$,#327);
#323=PRODUCT_RELATED_PRODUCT_CATEGORY('QBSE11-075','QBSE11-075',(#327));
#324=APPLICATION_PROTOCOL_DEFINITION('international standard',
'automotive_design',2009,#325);
#325=APPLICATION_CONTEXT(
'Core Data for Automotive Mechanical Design Process');
#326=PRODUCT_CONTEXT('part definition',#325,'mechanical');
#327=PRODUCT('QBSE11-075','QBSE11-075',
'PE100 Stub Flange for type 560/570 Check Valve with short spigot, \X\D8
75, SDR11 PN16',(#326));
#328=PRESENTATION_STYLE_ASSIGNMENT((#329));
#329=SURFACE_STYLE_USAGE(.BOTH.,#332);
#330=SURFACE_STYLE_RENDERING_WITH_PROPERTIES($,#336,(#331));
#331=SURFACE_STYLE_TRANSPARENT(0.);
#332=SURFACE_SIDE_STYLE('',(#333,#330));
#333=SURFACE_STYLE_FILL_AREA(#334);
#334=FILL_AREA_STYLE('',(#335));
#335=FILL_AREA_STYLE_COLOUR('',#336);
#336=COLOUR_RGB('',0.109803921568627,0.109803921568627,0.129411764705882);
ENDSEC;
END-ISO-10303-21;
