ISO-10303-21;
HEADER;
FILE_DESCRIPTION( ( 'STEP AP203' ), '1' );
FILE_NAME( 'p:/temp/worker_26/temp/exporttempdir_2424_488_hIi2C/format_0/30007161133(architecture400).stp', '2022-04-27T10:47:15', ( 'License CC BY-ND 4.0' ), ( 'CADENAS' ), ' ', 'PARTsolutions', ' ' );
FILE_SCHEMA( ( 'CONFIG_CONTROL_DESIGN' ) );
ENDSEC;
DATA;
#1 = DESIGN_CONTEXT( '', #27, 'design' );
#2 = APPLICATION_PROTOCOL_DEFINITION( 'international standard', 'config_control_design', 1994, #27 );
#3 = PRODUCT_CATEGORY_RELATIONSHIP( 'NONE', 'NONE', #28, #29 );
#4 = DATE_AND_TIME( #30, #31 );
#5 = DATE_TIME_ROLE( 'creation_date' );
#6 = DATE_TIME_ROLE( 'classification_date' );
#7 = PERSON_AND_ORGANIZATION_ROLE( 'creator' );
#8 = PERSON_AND_ORGANIZATION_ROLE( 'design_supplier' );
#9 = PERSON_AND_ORGANIZATION_ROLE( 'classification_officer' );
#10 = PERSON_AND_ORGANIZATION_ROLE( 'design_owner' );
#11 = APPROVAL_PERSON_ORGANIZATION( #32, #33, #34 );
#12 = APPROVAL_DATE_TIME( #4, #33 );
#13 = CC_DESIGN_APPROVAL( #33, ( #35, #36, #37 ) );
#14 = CC_DESIGN_DATE_AND_TIME_ASSIGNMENT( #4, #5, ( #37 ) );
#15 = CC_DESIGN_DATE_AND_TIME_ASSIGNMENT( #4, #6, ( #35 ) );
#16 = CC_DESIGN_PERSON_AND_ORGANIZATION_ASSIGNMENT( #32, #10, ( #38 ) );
#17 = CC_DESIGN_PERSON_AND_ORGANIZATION_ASSIGNMENT( #32, #7, ( #37 ) );
#18 = CC_DESIGN_PERSON_AND_ORGANIZATION_ASSIGNMENT( #32, #7, ( #36 ) );
#19 = CC_DESIGN_PERSON_AND_ORGANIZATION_ASSIGNMENT( #32, #8, ( #36 ) );
#20 = CC_DESIGN_SECURITY_CLASSIFICATION( #35, ( #36 ) );
#21 = CC_DESIGN_PERSON_AND_ORGANIZATION_ASSIGNMENT( #32, #9, ( #35 ) );
#22 = SHAPE_DEFINITION_REPRESENTATION( #39, #40 );
#23 =  ( GEOMETRIC_REPRESENTATION_CONTEXT( 3 )GLOBAL_UNCERTAINTY_ASSIGNED_CONTEXT( ( #43 ) )GLOBAL_UNIT_ASSIGNED_CONTEXT( ( #45, #46, #47 ) )REPRESENTATION_CONTEXT( 'NONE', 'WORKSPACE' ) );
#27 = APPLICATION_CONTEXT( 'configuration controlled 3D designs of mechanical parts and assemblies' );
#28 = PRODUCT_CATEGORY( 'part', 'NONE' );
#29 = PRODUCT_RELATED_PRODUCT_CATEGORY( 'detail', ' ', ( #38 ) );
#30 = CALENDAR_DATE( 2022, 27, 3 );
#31 = LOCAL_TIME( 12, 47, 15.0000000000000, #49 );
#32 = PERSON_AND_ORGANIZATION( #50, #51 );
#33 = APPROVAL( #52, 'SOLID MODEL' );
#34 = APPROVAL_ROLE( 'APPROVED' );
#35 = SECURITY_CLASSIFICATION( '', '', #53 );
#36 = PRODUCT_DEFINITION_FORMATION_WITH_SPECIFIED_SOURCE( ' ', 'NONE', #38, .NOT_KNOWN. );
#37 = PRODUCT_DEFINITION( 'NONE', 'NONE', #36, #1 );
#38 = PRODUCT( '_30007161133(architecture400)', '_30007161133(architecture400)', 'PART-_30007161133(architecture400)-DESC', ( #54 ) );
#39 = PRODUCT_DEFINITION_SHAPE( 'NONE', 'NONE', #37 );
#40 = ADVANCED_BREP_SHAPE_REPRESENTATION( '_30007161133(architecture400)', ( #55, #56 ), #23 );
#43 = UNCERTAINTY_MEASURE_WITH_UNIT( LENGTH_MEASURE( 0.00100000000000000 ), #45, '', '' );
#45 =  ( CONVERSION_BASED_UNIT( 'MILLIMETRE', #59 )LENGTH_UNIT(  )NAMED_UNIT( #62 ) );
#46 =  ( NAMED_UNIT( #64 )PLANE_ANGLE_UNIT(  )SI_UNIT( $, .RADIAN. ) );
#47 =  ( NAMED_UNIT( #64 )SI_UNIT( $, .STERADIAN. )SOLID_ANGLE_UNIT(  ) );
#49 = COORDINATED_UNIVERSAL_TIME_OFFSET( 1, 0, .AHEAD. );
#50 = PERSON( '', 'UNSPECIFIED', $, $, $, $ );
#51 = ORGANIZATION( 'UNSPECIFIED', 'UNSPECIFIED', 'UNSPECIFIED' );
#52 = APPROVAL_STATUS( 'approved' );
#53 = SECURITY_CLASSIFICATION_LEVEL( 'unclassified' );
#54 = MECHANICAL_CONTEXT( '', #27, 'mechanical' );
#55 = MANIFOLD_SOLID_BREP( '_30007161133(architecture400)', #70 );
#56 = AXIS2_PLACEMENT_3D( '', #71, #72, #73 );
#59 = LENGTH_MEASURE_WITH_UNIT( LENGTH_MEASURE( 1.00000000000000 ), #74 );
#62 = DIMENSIONAL_EXPONENTS( 1.00000000000000, 0.000000000000000, 0.000000000000000, 0.000000000000000, 0.000000000000000, 0.000000000000000, 0.000000000000000 );
#64 = DIMENSIONAL_EXPONENTS( 0.000000000000000, 0.000000000000000, 0.000000000000000, 0.000000000000000, 0.000000000000000, 0.000000000000000, 0.000000000000000 );
#70 = CLOSED_SHELL( '', ( #75, #76, #77, #78, #79, #80, #81, #82, #83, #84, #85, #86, #87, #88, #89, #90 ) );
#71 = CARTESIAN_POINT( '', ( 0.000000000000000, 0.000000000000000, 0.000000000000000 ) );
#72 = DIRECTION( '', ( 0.000000000000000, 0.000000000000000, 1.00000000000000 ) );
#73 = DIRECTION( '', ( 1.00000000000000, 0.000000000000000, 0.000000000000000 ) );
#74 =  ( LENGTH_UNIT(  )NAMED_UNIT( #62 )SI_UNIT( .MILLI., .METRE. ) );
#75 = ADVANCED_FACE( '', ( #92, #93 ), #94, .T. );
#76 = ADVANCED_FACE( '', ( #95, #96 ), #97, .T. );
#77 = ADVANCED_FACE( '', ( #98, #99 ), #100, .F. );
#78 = ADVANCED_FACE( '', ( #101, #102 ), #103, .F. );
#79 = ADVANCED_FACE( '', ( #104, #105 ), #106, .F. );
#80 = ADVANCED_FACE( '', ( #107, #108 ), #109, .F. );
#81 = ADVANCED_FACE( '', ( #110, #111 ), #112, .F. );
#82 = ADVANCED_FACE( '', ( #113, #114 ), #115, .F. );
#83 = ADVANCED_FACE( '', ( #116, #117 ), #118, .F. );
#84 = ADVANCED_FACE( '', ( #119, #120 ), #121, .T. );
#85 = ADVANCED_FACE( '', ( #122, #123 ), #124, .T. );
#86 = ADVANCED_FACE( '', ( #125, #126 ), #127, .T. );
#87 = ADVANCED_FACE( '', ( #128, #129 ), #130, .T. );
#88 = ADVANCED_FACE( '', ( #131, #132 ), #133, .T. );
#89 = ADVANCED_FACE( '', ( #134, #135 ), #136, .T. );
#90 = ADVANCED_FACE( '', ( #137, #138 ), #139, .T. );
#92 = FACE_OUTER_BOUND( '', #140, .T. );
#93 = FACE_OUTER_BOUND( '', #141, .T. );
#94 = CYLINDRICAL_SURFACE( '', #142, 80.0000000000000 );
#95 = FACE_BOUND( '', #143, .T. );
#96 = FACE_OUTER_BOUND( '', #144, .T. );
#97 = PLANE( '', #145 );
#98 = FACE_OUTER_BOUND( '', #146, .T. );
#99 = FACE_OUTER_BOUND( '', #147, .T. );
#100 = CYLINDRICAL_SURFACE( '', #148, 75.1000000000000 );
#101 = FACE_BOUND( '', #149, .T. );
#102 = FACE_OUTER_BOUND( '', #150, .T. );
#103 = CONICAL_SURFACE( '', #151, 75.1000000000000, 0.711459125700000 );
#104 = FACE_OUTER_BOUND( '', #152, .T. );
#105 = FACE_OUTER_BOUND( '', #153, .T. );
#106 = CYLINDRICAL_SURFACE( '', #154, 66.6000000000000 );
#107 = FACE_BOUND( '', #155, .T. );
#108 = FACE_OUTER_BOUND( '', #156, .T. );
#109 = CONICAL_SURFACE( '', #157, 66.6000000000000, 0.573947304300000 );
#110 = FACE_OUTER_BOUND( '', #158, .T. );
#111 = FACE_OUTER_BOUND( '', #159, .T. );
#112 = CYLINDRICAL_SURFACE( '', #160, 59.1000000000000 );
#113 = FACE_BOUND( '', #161, .T. );
#114 = FACE_OUTER_BOUND( '', #162, .T. );
#115 = CONICAL_SURFACE( '', #163, 59.1000000000000, 0.573947304300000 );
#116 = FACE_OUTER_BOUND( '', #164, .T. );
#117 = FACE_OUTER_BOUND( '', #165, .T. );
#118 = CYLINDRICAL_SURFACE( '', #166, 51.6000000000000 );
#119 = FACE_OUTER_BOUND( '', #167, .T. );
#120 = FACE_BOUND( '', #168, .T. );
#121 = PLANE( '', #169 );
#122 = FACE_OUTER_BOUND( '', #170, .T. );
#123 = FACE_OUTER_BOUND( '', #171, .T. );
#124 = CYLINDRICAL_SURFACE( '', #172, 55.0000000000000 );
#125 = FACE_OUTER_BOUND( '', #173, .T. );
#126 = FACE_BOUND( '', #174, .T. );
#127 = CONICAL_SURFACE( '', #175, 55.0000000000000, 0.573947304300000 );
#128 = FACE_OUTER_BOUND( '', #176, .T. );
#129 = FACE_OUTER_BOUND( '', #177, .T. );
#130 = CYLINDRICAL_SURFACE( '', #178, 62.5000000000000 );
#131 = FACE_OUTER_BOUND( '', #179, .T. );
#132 = FACE_BOUND( '', #180, .T. );
#133 = CONICAL_SURFACE( '', #181, 62.5000000000000, 0.573947304300000 );
#134 = FACE_OUTER_BOUND( '', #182, .T. );
#135 = FACE_OUTER_BOUND( '', #183, .T. );
#136 = CYLINDRICAL_SURFACE( '', #184, 70.0000000000000 );
#137 = FACE_OUTER_BOUND( '', #185, .T. );
#138 = FACE_BOUND( '', #186, .T. );
#139 = CONICAL_SURFACE( '', #187, 70.0000000000000, 0.711459125700000 );
#140 = EDGE_LOOP( '', ( #188 ) );
#141 = EDGE_LOOP( '', ( #189 ) );
#142 = AXIS2_PLACEMENT_3D( '', #190, #191, #192 );
#143 = EDGE_LOOP( '', ( #193 ) );
#144 = EDGE_LOOP( '', ( #194 ) );
#145 = AXIS2_PLACEMENT_3D( '', #195, #196, #197 );
#146 = EDGE_LOOP( '', ( #198 ) );
#147 = EDGE_LOOP( '', ( #199 ) );
#148 = AXIS2_PLACEMENT_3D( '', #200, #201, #202 );
#149 = EDGE_LOOP( '', ( #203 ) );
#150 = EDGE_LOOP( '', ( #204 ) );
#151 = AXIS2_PLACEMENT_3D( '', #205, #206, #207 );
#152 = EDGE_LOOP( '', ( #208 ) );
#153 = EDGE_LOOP( '', ( #209 ) );
#154 = AXIS2_PLACEMENT_3D( '', #210, #211, #212 );
#155 = EDGE_LOOP( '', ( #213 ) );
#156 = EDGE_LOOP( '', ( #214 ) );
#157 = AXIS2_PLACEMENT_3D( '', #215, #216, #217 );
#158 = EDGE_LOOP( '', ( #218 ) );
#159 = EDGE_LOOP( '', ( #219 ) );
#160 = AXIS2_PLACEMENT_3D( '', #220, #221, #222 );
#161 = EDGE_LOOP( '', ( #223 ) );
#162 = EDGE_LOOP( '', ( #224 ) );
#163 = AXIS2_PLACEMENT_3D( '', #225, #226, #227 );
#164 = EDGE_LOOP( '', ( #228 ) );
#165 = EDGE_LOOP( '', ( #229 ) );
#166 = AXIS2_PLACEMENT_3D( '', #230, #231, #232 );
#167 = EDGE_LOOP( '', ( #233 ) );
#168 = EDGE_LOOP( '', ( #234 ) );
#169 = AXIS2_PLACEMENT_3D( '', #235, #236, #237 );
#170 = EDGE_LOOP( '', ( #238 ) );
#171 = EDGE_LOOP( '', ( #239 ) );
#172 = AXIS2_PLACEMENT_3D( '', #240, #241, #242 );
#173 = EDGE_LOOP( '', ( #243 ) );
#174 = EDGE_LOOP( '', ( #244 ) );
#175 = AXIS2_PLACEMENT_3D( '', #245, #246, #247 );
#176 = EDGE_LOOP( '', ( #248 ) );
#177 = EDGE_LOOP( '', ( #249 ) );
#178 = AXIS2_PLACEMENT_3D( '', #250, #251, #252 );
#179 = EDGE_LOOP( '', ( #253 ) );
#180 = EDGE_LOOP( '', ( #254 ) );
#181 = AXIS2_PLACEMENT_3D( '', #255, #256, #257 );
#182 = EDGE_LOOP( '', ( #258 ) );
#183 = EDGE_LOOP( '', ( #259 ) );
#184 = AXIS2_PLACEMENT_3D( '', #260, #261, #262 );
#185 = EDGE_LOOP( '', ( #263 ) );
#186 = EDGE_LOOP( '', ( #264 ) );
#187 = AXIS2_PLACEMENT_3D( '', #265, #266, #267 );
#188 = ORIENTED_EDGE( '', *, *, #268, .T. );
#189 = ORIENTED_EDGE( '', *, *, #269, .F. );
#190 = CARTESIAN_POINT( '', ( 85.0000000000000, -5.68434188608080E-14, 0.000000000000000 ) );
#191 = DIRECTION( '', ( -1.00000000000000, -0.000000000000000, 0.000000000000000 ) );
#192 = DIRECTION( '', ( -0.000000000000000, 0.000000000000000, -1.00000000000000 ) );
#193 = ORIENTED_EDGE( '', *, *, #270, .T. );
#194 = ORIENTED_EDGE( '', *, *, #268, .F. );
#195 = CARTESIAN_POINT( '', ( 0.000000000000000, 80.0000000000000, 0.000000000000000 ) );
#196 = DIRECTION( '', ( -1.00000000000000, 0.000000000000000, 0.000000000000000 ) );
#197 = DIRECTION( '', ( 0.000000000000000, 0.000000000000000, 1.00000000000000 ) );
#198 = ORIENTED_EDGE( '', *, *, #271, .T. );
#199 = ORIENTED_EDGE( '', *, *, #270, .F. );
#200 = CARTESIAN_POINT( '', ( 85.0000000000000, -5.68434188608080E-14, 0.000000000000000 ) );
#201 = DIRECTION( '', ( -1.00000000000000, -0.000000000000000, 0.000000000000000 ) );
#202 = DIRECTION( '', ( -0.000000000000000, 0.000000000000000, -1.00000000000000 ) );
#203 = ORIENTED_EDGE( '', *, *, #272, .T. );
#204 = ORIENTED_EDGE( '', *, *, #271, .F. );
#205 = CARTESIAN_POINT( '', ( 14.0000000000000, -5.68434188608080E-14, 0.000000000000000 ) );
#206 = DIRECTION( '', ( -1.00000000000000, 0.000000000000000, -0.000000000000000 ) );
#207 = DIRECTION( '', ( 0.000000000000000, 0.000000000000000, 1.00000000000000 ) );
#208 = ORIENTED_EDGE( '', *, *, #273, .T. );
#209 = ORIENTED_EDGE( '', *, *, #272, .F. );
#210 = CARTESIAN_POINT( '', ( 85.0000000000000, -5.68434188608080E-14, 0.000000000000000 ) );
#211 = DIRECTION( '', ( -1.00000000000000, -0.000000000000000, 0.000000000000000 ) );
#212 = DIRECTION( '', ( -0.000000000000000, 0.000000000000000, -1.00000000000000 ) );
#213 = ORIENTED_EDGE( '', *, *, #274, .T. );
#214 = ORIENTED_EDGE( '', *, *, #273, .F. );
#215 = CARTESIAN_POINT( '', ( 37.2000000000000, -5.68434188608080E-14, 0.000000000000000 ) );
#216 = DIRECTION( '', ( -1.00000000000000, 0.000000000000000, -0.000000000000000 ) );
#217 = DIRECTION( '', ( 0.000000000000000, 0.000000000000000, 1.00000000000000 ) );
#218 = ORIENTED_EDGE( '', *, *, #275, .T. );
#219 = ORIENTED_EDGE( '', *, *, #274, .F. );
#220 = CARTESIAN_POINT( '', ( 85.0000000000000, -5.68434188608080E-14, 0.000000000000000 ) );
#221 = DIRECTION( '', ( -1.00000000000000, -0.000000000000000, 0.000000000000000 ) );
#222 = DIRECTION( '', ( -0.000000000000000, 0.000000000000000, -1.00000000000000 ) );
#223 = ORIENTED_EDGE( '', *, *, #276, .T. );
#224 = ORIENTED_EDGE( '', *, *, #275, .F. );
#225 = CARTESIAN_POINT( '', ( 60.4000000000000, -5.68434188608080E-14, 0.000000000000000 ) );
#226 = DIRECTION( '', ( -1.00000000000000, 0.000000000000000, -0.000000000000000 ) );
#227 = DIRECTION( '', ( 0.000000000000000, 0.000000000000000, 1.00000000000000 ) );
#228 = ORIENTED_EDGE( '', *, *, #277, .T. );
#229 = ORIENTED_EDGE( '', *, *, #276, .F. );
#230 = CARTESIAN_POINT( '', ( 85.0000000000000, -5.68434188608080E-14, 0.000000000000000 ) );
#231 = DIRECTION( '', ( -1.00000000000000, -0.000000000000000, 0.000000000000000 ) );
#232 = DIRECTION( '', ( -0.000000000000000, 0.000000000000000, -1.00000000000000 ) );
#233 = ORIENTED_EDGE( '', *, *, #278, .T. );
#234 = ORIENTED_EDGE( '', *, *, #277, .F. );
#235 = CARTESIAN_POINT( '', ( 85.0000000000000, 51.6000000000000, 0.000000000000000 ) );
#236 = DIRECTION( '', ( 1.00000000000000, 0.000000000000000, -0.000000000000000 ) );
#237 = DIRECTION( '', ( -0.000000000000000, 0.000000000000000, -1.00000000000000 ) );
#238 = ORIENTED_EDGE( '', *, *, #279, .T. );
#239 = ORIENTED_EDGE( '', *, *, #278, .F. );
#240 = CARTESIAN_POINT( '', ( 85.0000000000000, -5.68434188608080E-14, 0.000000000000000 ) );
#241 = DIRECTION( '', ( -1.00000000000000, -0.000000000000000, 0.000000000000000 ) );
#242 = DIRECTION( '', ( -0.000000000000000, 0.000000000000000, -1.00000000000000 ) );
#243 = ORIENTED_EDGE( '', *, *, #280, .T. );
#244 = ORIENTED_EDGE( '', *, *, #279, .F. );
#245 = CARTESIAN_POINT( '', ( 72.0000000000000, -5.68434188608080E-14, 0.000000000000000 ) );
#246 = DIRECTION( '', ( -1.00000000000000, 0.000000000000000, -0.000000000000000 ) );
#247 = DIRECTION( '', ( 0.000000000000000, 0.000000000000000, 1.00000000000000 ) );
#248 = ORIENTED_EDGE( '', *, *, #281, .T. );
#249 = ORIENTED_EDGE( '', *, *, #280, .F. );
#250 = CARTESIAN_POINT( '', ( 85.0000000000000, -5.68434188608080E-14, 0.000000000000000 ) );
#251 = DIRECTION( '', ( -1.00000000000000, -0.000000000000000, 0.000000000000000 ) );
#252 = DIRECTION( '', ( -0.000000000000000, 0.000000000000000, -1.00000000000000 ) );
#253 = ORIENTED_EDGE( '', *, *, #282, .T. );
#254 = ORIENTED_EDGE( '', *, *, #281, .F. );
#255 = CARTESIAN_POINT( '', ( 48.8000000000000, -5.68434188608080E-14, 0.000000000000000 ) );
#256 = DIRECTION( '', ( -1.00000000000000, 0.000000000000000, -0.000000000000000 ) );
#257 = DIRECTION( '', ( 0.000000000000000, 0.000000000000000, 1.00000000000000 ) );
#258 = ORIENTED_EDGE( '', *, *, #283, .T. );
#259 = ORIENTED_EDGE( '', *, *, #282, .F. );
#260 = CARTESIAN_POINT( '', ( 85.0000000000000, -5.68434188608080E-14, 0.000000000000000 ) );
#261 = DIRECTION( '', ( -1.00000000000000, -0.000000000000000, 0.000000000000000 ) );
#262 = DIRECTION( '', ( -0.000000000000000, 0.000000000000000, -1.00000000000000 ) );
#263 = ORIENTED_EDGE( '', *, *, #269, .T. );
#264 = ORIENTED_EDGE( '', *, *, #283, .F. );
#265 = CARTESIAN_POINT( '', ( 25.5999999999999, -5.68434188608080E-14, 0.000000000000000 ) );
#266 = DIRECTION( '', ( -1.00000000000000, 0.000000000000000, -0.000000000000000 ) );
#267 = DIRECTION( '', ( 0.000000000000000, 0.000000000000000, 1.00000000000000 ) );
#268 = EDGE_CURVE( '', #284, #284, #285, .T. );
#269 = EDGE_CURVE( '', #286, #286, #287, .T. );
#270 = EDGE_CURVE( '', #288, #288, #289, .T. );
#271 = EDGE_CURVE( '', #290, #290, #291, .T. );
#272 = EDGE_CURVE( '', #292, #292, #293, .T. );
#273 = EDGE_CURVE( '', #294, #294, #295, .T. );
#274 = EDGE_CURVE( '', #296, #296, #297, .T. );
#275 = EDGE_CURVE( '', #298, #298, #299, .T. );
#276 = EDGE_CURVE( '', #300, #300, #301, .T. );
#277 = EDGE_CURVE( '', #302, #302, #303, .T. );
#278 = EDGE_CURVE( '', #304, #304, #305, .T. );
#279 = EDGE_CURVE( '', #306, #306, #307, .T. );
#280 = EDGE_CURVE( '', #308, #308, #309, .T. );
#281 = EDGE_CURVE( '', #310, #310, #311, .T. );
#282 = EDGE_CURVE( '', #312, #312, #313, .T. );
#283 = EDGE_CURVE( '', #314, #314, #315, .T. );
#284 = VERTEX_POINT( '', #316 );
#285 = CIRCLE( '', #317, 80.0000000000000 );
#286 = VERTEX_POINT( '', #318 );
#287 = CIRCLE( '', #319, 80.0000000000000 );
#288 = VERTEX_POINT( '', #320 );
#289 = CIRCLE( '', #321, 75.1000000000000 );
#290 = VERTEX_POINT( '', #322 );
#291 = CIRCLE( '', #323, 75.1000000000000 );
#292 = VERTEX_POINT( '', #324 );
#293 = CIRCLE( '', #325, 66.6000000000000 );
#294 = VERTEX_POINT( '', #326 );
#295 = CIRCLE( '', #327, 66.6000000000000 );
#296 = VERTEX_POINT( '', #328 );
#297 = CIRCLE( '', #329, 59.1000000000000 );
#298 = VERTEX_POINT( '', #330 );
#299 = CIRCLE( '', #331, 59.1000000000000 );
#300 = VERTEX_POINT( '', #332 );
#301 = CIRCLE( '', #333, 51.6000000000000 );
#302 = VERTEX_POINT( '', #334 );
#303 = CIRCLE( '', #335, 51.6000000000000 );
#304 = VERTEX_POINT( '', #336 );
#305 = CIRCLE( '', #337, 55.0000000000000 );
#306 = VERTEX_POINT( '', #338 );
#307 = CIRCLE( '', #339, 55.0000000000000 );
#308 = VERTEX_POINT( '', #340 );
#309 = CIRCLE( '', #341, 62.5000000000000 );
#310 = VERTEX_POINT( '', #342 );
#311 = CIRCLE( '', #343, 62.5000000000000 );
#312 = VERTEX_POINT( '', #344 );
#313 = CIRCLE( '', #345, 70.0000000000000 );
#314 = VERTEX_POINT( '', #346 );
#315 = CIRCLE( '', #347, 70.0000000000000 );
#316 = CARTESIAN_POINT( '', ( 0.000000000000000, -5.68434188608080E-14, -80.0000000000001 ) );
#317 = AXIS2_PLACEMENT_3D( '', #348, #349, #350 );
#318 = CARTESIAN_POINT( '', ( 14.0000000000000, -5.68434188608080E-14, -80.0000000000001 ) );
#319 = AXIS2_PLACEMENT_3D( '', #351, #352, #353 );
#320 = CARTESIAN_POINT( '', ( 0.000000000000000, -5.68434188608080E-14, -75.1000000000001 ) );
#321 = AXIS2_PLACEMENT_3D( '', #354, #355, #356 );
#322 = CARTESIAN_POINT( '', ( 14.0000000000000, -5.68434188608080E-14, -75.1000000000001 ) );
#323 = AXIS2_PLACEMENT_3D( '', #357, #358, #359 );
#324 = CARTESIAN_POINT( '', ( 23.8599999999999, -5.68434188608080E-14, -66.6000000000001 ) );
#325 = AXIS2_PLACEMENT_3D( '', #360, #361, #362 );
#326 = CARTESIAN_POINT( '', ( 37.2000000000000, -5.68434188608080E-14, -66.6000000000001 ) );
#327 = AXIS2_PLACEMENT_3D( '', #363, #364, #365 );
#328 = CARTESIAN_POINT( '', ( 48.8000000000000, -5.68434188608080E-14, -59.1000000000001 ) );
#329 = AXIS2_PLACEMENT_3D( '', #366, #367, #368 );
#330 = CARTESIAN_POINT( '', ( 60.4000000000000, -5.68434188608080E-14, -59.1000000000001 ) );
#331 = AXIS2_PLACEMENT_3D( '', #369, #370, #371 );
#332 = CARTESIAN_POINT( '', ( 72.0000000000000, -5.68434188608080E-14, -51.6000000000001 ) );
#333 = AXIS2_PLACEMENT_3D( '', #372, #373, #374 );
#334 = CARTESIAN_POINT( '', ( 85.0000000000000, -5.68434188608080E-14, -51.6000000000001 ) );
#335 = AXIS2_PLACEMENT_3D( '', #375, #376, #377 );
#336 = CARTESIAN_POINT( '', ( 85.0000000000000, -5.68434188608080E-14, -55.0000000000001 ) );
#337 = AXIS2_PLACEMENT_3D( '', #378, #379, #380 );
#338 = CARTESIAN_POINT( '', ( 72.0000000000000, -5.68434188608080E-14, -55.0000000000001 ) );
#339 = AXIS2_PLACEMENT_3D( '', #381, #382, #383 );
#340 = CARTESIAN_POINT( '', ( 60.4000000000000, -5.68434188608080E-14, -62.5000000000001 ) );
#341 = AXIS2_PLACEMENT_3D( '', #384, #385, #386 );
#342 = CARTESIAN_POINT( '', ( 48.8000000000000, -5.68434188608080E-14, -62.5000000000001 ) );
#343 = AXIS2_PLACEMENT_3D( '', #387, #388, #389 );
#344 = CARTESIAN_POINT( '', ( 37.2000000000000, -5.68434188608080E-14, -70.0000000000001 ) );
#345 = AXIS2_PLACEMENT_3D( '', #390, #391, #392 );
#346 = CARTESIAN_POINT( '', ( 25.5999999999999, -5.68434188608080E-14, -70.0000000000001 ) );
#347 = AXIS2_PLACEMENT_3D( '', #393, #394, #395 );
#348 = CARTESIAN_POINT( '', ( 0.000000000000000, -5.68434188608080E-14, 0.000000000000000 ) );
#349 = DIRECTION( '', ( 1.00000000000000, 0.000000000000000, -0.000000000000000 ) );
#350 = DIRECTION( '', ( -0.000000000000000, 0.000000000000000, -1.00000000000000 ) );
#351 = CARTESIAN_POINT( '', ( 14.0000000000000, -5.68434188608080E-14, 0.000000000000000 ) );
#352 = DIRECTION( '', ( 1.00000000000000, 0.000000000000000, -0.000000000000000 ) );
#353 = DIRECTION( '', ( -0.000000000000000, 0.000000000000000, -1.00000000000000 ) );
#354 = CARTESIAN_POINT( '', ( 0.000000000000000, -5.68434188608080E-14, 0.000000000000000 ) );
#355 = DIRECTION( '', ( 1.00000000000000, 0.000000000000000, -0.000000000000000 ) );
#356 = DIRECTION( '', ( -0.000000000000000, 0.000000000000000, -1.00000000000000 ) );
#357 = CARTESIAN_POINT( '', ( 14.0000000000000, -5.68434188608080E-14, 0.000000000000000 ) );
#358 = DIRECTION( '', ( 1.00000000000000, 0.000000000000000, -0.000000000000000 ) );
#359 = DIRECTION( '', ( -0.000000000000000, 0.000000000000000, -1.00000000000000 ) );
#360 = CARTESIAN_POINT( '', ( 23.8599999999999, -5.68434188608080E-14, 0.000000000000000 ) );
#361 = DIRECTION( '', ( 1.00000000000000, 0.000000000000000, -0.000000000000000 ) );
#362 = DIRECTION( '', ( -0.000000000000000, 0.000000000000000, -1.00000000000000 ) );
#363 = CARTESIAN_POINT( '', ( 37.2000000000000, -5.68434188608080E-14, 0.000000000000000 ) );
#364 = DIRECTION( '', ( 1.00000000000000, 0.000000000000000, -0.000000000000000 ) );
#365 = DIRECTION( '', ( -0.000000000000000, 0.000000000000000, -1.00000000000000 ) );
#366 = CARTESIAN_POINT( '', ( 48.8000000000000, -5.68434188608080E-14, 0.000000000000000 ) );
#367 = DIRECTION( '', ( 1.00000000000000, 0.000000000000000, -0.000000000000000 ) );
#368 = DIRECTION( '', ( -0.000000000000000, 0.000000000000000, -1.00000000000000 ) );
#369 = CARTESIAN_POINT( '', ( 60.4000000000000, -5.68434188608080E-14, 0.000000000000000 ) );
#370 = DIRECTION( '', ( 1.00000000000000, 0.000000000000000, -0.000000000000000 ) );
#371 = DIRECTION( '', ( -0.000000000000000, 0.000000000000000, -1.00000000000000 ) );
#372 = CARTESIAN_POINT( '', ( 72.0000000000000, -5.68434188608080E-14, 0.000000000000000 ) );
#373 = DIRECTION( '', ( 1.00000000000000, 0.000000000000000, -0.000000000000000 ) );
#374 = DIRECTION( '', ( -0.000000000000000, 0.000000000000000, -1.00000000000000 ) );
#375 = CARTESIAN_POINT( '', ( 85.0000000000000, -5.68434188608080E-14, 0.000000000000000 ) );
#376 = DIRECTION( '', ( 1.00000000000000, 0.000000000000000, -0.000000000000000 ) );
#377 = DIRECTION( '', ( -0.000000000000000, 0.000000000000000, -1.00000000000000 ) );
#378 = CARTESIAN_POINT( '', ( 85.0000000000000, -5.68434188608080E-14, 0.000000000000000 ) );
#379 = DIRECTION( '', ( 1.00000000000000, 0.000000000000000, -0.000000000000000 ) );
#380 = DIRECTION( '', ( -0.000000000000000, 0.000000000000000, -1.00000000000000 ) );
#381 = CARTESIAN_POINT( '', ( 72.0000000000000, -5.68434188608080E-14, 0.000000000000000 ) );
#382 = DIRECTION( '', ( 1.00000000000000, 0.000000000000000, -0.000000000000000 ) );
#383 = DIRECTION( '', ( -0.000000000000000, 0.000000000000000, -1.00000000000000 ) );
#384 = CARTESIAN_POINT( '', ( 60.4000000000000, -5.68434188608080E-14, 0.000000000000000 ) );
#385 = DIRECTION( '', ( 1.00000000000000, 0.000000000000000, -0.000000000000000 ) );
#386 = DIRECTION( '', ( -0.000000000000000, 0.000000000000000, -1.00000000000000 ) );
#387 = CARTESIAN_POINT( '', ( 48.8000000000000, -5.68434188608080E-14, 0.000000000000000 ) );
#388 = DIRECTION( '', ( 1.00000000000000, 0.000000000000000, -0.000000000000000 ) );
#389 = DIRECTION( '', ( -0.000000000000000, 0.000000000000000, -1.00000000000000 ) );
#390 = CARTESIAN_POINT( '', ( 37.2000000000000, -5.68434188608080E-14, 0.000000000000000 ) );
#391 = DIRECTION( '', ( 1.00000000000000, 0.000000000000000, -0.000000000000000 ) );
#392 = DIRECTION( '', ( -0.000000000000000, 0.000000000000000, -1.00000000000000 ) );
#393 = CARTESIAN_POINT( '', ( 25.5999999999999, -5.68434188608080E-14, 0.000000000000000 ) );
#394 = DIRECTION( '', ( 1.00000000000000, 0.000000000000000, -0.000000000000000 ) );
#395 = DIRECTION( '', ( -0.000000000000000, 0.000000000000000, -1.00000000000000 ) );
ENDSEC;
END-ISO-10303-21;
