ISO-10303-21;
HEADER;
/* Generated by software containing ST-Developer
 * from STEP Tools, Inc. (www.steptools.com) 
 */

FILE_DESCRIPTION(
/* description */ ('PE100 Reducer for socket welding, \X\D863-\X\D832,
 PN16'),
/* implementation_level */ '2;1');

FILE_NAME(
/* name */ 
'RIE-RC-063-032',
/* time_stamp */ '2023-01-10T10:03:14+01:00',
/* author */ ('COAB Solutions'),
/* organization */ ('GPA Flowsystem'),
/* preprocessor_version */ 'www.coabsolutions.com - creating and organizing all your 3D drawings',
/* originating_system */ 'Autodesk Inventor 2021',
/* authorisation */ '');

FILE_SCHEMA (('AUTOMOTIVE_DESIGN { 1 0 10303 214 3 1 1 }'));
ENDSEC;

DATA;
#10=MECHANICAL_DESIGN_GEOMETRIC_PRESENTATION_REPRESENTATION('',(#13),#346);
#11=SHAPE_REPRESENTATION_RELATIONSHIP('SRR','None',#353,#12);
#12=ADVANCED_BREP_SHAPE_REPRESENTATION('',(#14),#345);
#13=STYLED_ITEM('',(#362),#14);
#14=MANIFOLD_SOLID_BREP('Solid1',#185);
#15=FACE_BOUND('',#43,.T.);
#16=FACE_BOUND('',#46,.T.);
#17=FACE_BOUND('',#49,.T.);
#18=FACE_BOUND('',#53,.T.);
#19=PLANE('',#212);
#20=PLANE('',#216);
#21=PLANE('',#220);
#22=PLANE('',#226);
#23=CONICAL_SURFACE('',#208,26.475,0.37676744144232);
#24=CONICAL_SURFACE('',#222,21.025,0.3640577866699);
#25=CONICAL_SURFACE('',#230,31.0835,0.785398163397448);
#26=FACE_OUTER_BOUND('',#39,.T.);
#27=FACE_OUTER_BOUND('',#40,.T.);
#28=FACE_OUTER_BOUND('',#41,.T.);
#29=FACE_OUTER_BOUND('',#42,.T.);
#30=FACE_OUTER_BOUND('',#44,.T.);
#31=FACE_OUTER_BOUND('',#45,.T.);
#32=FACE_OUTER_BOUND('',#47,.T.);
#33=FACE_OUTER_BOUND('',#48,.T.);
#34=FACE_OUTER_BOUND('',#50,.T.);
#35=FACE_OUTER_BOUND('',#51,.T.);
#36=FACE_OUTER_BOUND('',#52,.T.);
#37=FACE_OUTER_BOUND('',#54,.T.);
#38=FACE_OUTER_BOUND('',#55,.T.);
#39=EDGE_LOOP('',(#122,#123,#124,#125));
#40=EDGE_LOOP('',(#126,#127,#128,#129));
#41=EDGE_LOOP('',(#130,#131,#132,#133));
#42=EDGE_LOOP('',(#134));
#43=EDGE_LOOP('',(#135));
#44=EDGE_LOOP('',(#136,#137,#138,#139));
#45=EDGE_LOOP('',(#140));
#46=EDGE_LOOP('',(#141));
#47=EDGE_LOOP('',(#142,#143,#144,#145));
#48=EDGE_LOOP('',(#146));
#49=EDGE_LOOP('',(#147));
#50=EDGE_LOOP('',(#148,#149,#150,#151));
#51=EDGE_LOOP('',(#152,#153,#154,#155));
#52=EDGE_LOOP('',(#156));
#53=EDGE_LOOP('',(#157));
#54=EDGE_LOOP('',(#158,#159,#160,#161));
#55=EDGE_LOOP('',(#162,#163,#164,#165));
#56=LINE('',#299,#65);
#57=LINE('',#304,#66);
#58=LINE('',#308,#67);
#59=LINE('',#314,#68);
#60=LINE('',#321,#69);
#61=LINE('',#328,#70);
#62=LINE('',#332,#71);
#63=LINE('',#340,#72);
#64=LINE('',#342,#73);
#65=VECTOR('',#237,31.5);
#66=VECTOR('',#244,26.475);
#67=VECTOR('',#249,21.45);
#68=VECTOR('',#256,16.);
#69=VECTOR('',#265,14.35);
#70=VECTOR('',#274,21.025);
#71=VECTOR('',#279,26.05);
#72=VECTOR('',#290,30.667);
#73=VECTOR('',#293,31.0835);
#74=CIRCLE('',#206,31.5);
#75=CIRCLE('',#207,31.5);
#76=CIRCLE('',#209,21.45);
#77=CIRCLE('',#211,21.45);
#78=CIRCLE('',#213,16.);
#79=CIRCLE('',#215,16.);
#80=CIRCLE('',#217,14.35);
#81=CIRCLE('',#219,14.35);
#82=CIRCLE('',#221,16.);
#83=CIRCLE('',#223,26.05);
#84=CIRCLE('',#225,26.05);
#85=CIRCLE('',#227,30.667);
#86=CIRCLE('',#229,30.667);
#87=VERTEX_POINT('',#296);
#88=VERTEX_POINT('',#298);
#89=VERTEX_POINT('',#302);
#90=VERTEX_POINT('',#306);
#91=VERTEX_POINT('',#310);
#92=VERTEX_POINT('',#313);
#93=VERTEX_POINT('',#317);
#94=VERTEX_POINT('',#320);
#95=VERTEX_POINT('',#324);
#96=VERTEX_POINT('',#327);
#97=VERTEX_POINT('',#331);
#98=VERTEX_POINT('',#335);
#99=VERTEX_POINT('',#338);
#100=EDGE_CURVE('',#87,#87,#74,.T.);
#101=EDGE_CURVE('',#87,#88,#56,.T.);
#102=EDGE_CURVE('',#88,#88,#75,.T.);
#103=EDGE_CURVE('',#89,#89,#76,.T.);
#104=EDGE_CURVE('',#89,#87,#57,.T.);
#105=EDGE_CURVE('',#90,#90,#77,.T.);
#106=EDGE_CURVE('',#90,#89,#58,.T.);
#107=EDGE_CURVE('',#91,#91,#78,.T.);
#108=EDGE_CURVE('',#91,#92,#59,.T.);
#109=EDGE_CURVE('',#92,#92,#79,.T.);
#110=EDGE_CURVE('',#93,#93,#80,.T.);
#111=EDGE_CURVE('',#93,#94,#60,.T.);
#112=EDGE_CURVE('',#94,#94,#81,.T.);
#113=EDGE_CURVE('',#95,#95,#82,.T.);
#114=EDGE_CURVE('',#95,#96,#61,.T.);
#115=EDGE_CURVE('',#96,#96,#83,.T.);
#116=EDGE_CURVE('',#96,#97,#62,.T.);
#117=EDGE_CURVE('',#97,#97,#84,.T.);
#118=EDGE_CURVE('',#98,#98,#85,.T.);
#119=EDGE_CURVE('',#99,#99,#86,.T.);
#120=EDGE_CURVE('',#99,#98,#63,.T.);
#121=EDGE_CURVE('',#88,#99,#64,.T.);
#122=ORIENTED_EDGE('',*,*,#100,.F.);
#123=ORIENTED_EDGE('',*,*,#101,.T.);
#124=ORIENTED_EDGE('',*,*,#102,.T.);
#125=ORIENTED_EDGE('',*,*,#101,.F.);
#126=ORIENTED_EDGE('',*,*,#103,.F.);
#127=ORIENTED_EDGE('',*,*,#104,.T.);
#128=ORIENTED_EDGE('',*,*,#100,.T.);
#129=ORIENTED_EDGE('',*,*,#104,.F.);
#130=ORIENTED_EDGE('',*,*,#105,.F.);
#131=ORIENTED_EDGE('',*,*,#106,.T.);
#132=ORIENTED_EDGE('',*,*,#103,.T.);
#133=ORIENTED_EDGE('',*,*,#106,.F.);
#134=ORIENTED_EDGE('',*,*,#105,.T.);
#135=ORIENTED_EDGE('',*,*,#107,.F.);
#136=ORIENTED_EDGE('',*,*,#107,.T.);
#137=ORIENTED_EDGE('',*,*,#108,.T.);
#138=ORIENTED_EDGE('',*,*,#109,.F.);
#139=ORIENTED_EDGE('',*,*,#108,.F.);
#140=ORIENTED_EDGE('',*,*,#109,.T.);
#141=ORIENTED_EDGE('',*,*,#110,.F.);
#142=ORIENTED_EDGE('',*,*,#110,.T.);
#143=ORIENTED_EDGE('',*,*,#111,.T.);
#144=ORIENTED_EDGE('',*,*,#112,.F.);
#145=ORIENTED_EDGE('',*,*,#111,.F.);
#146=ORIENTED_EDGE('',*,*,#113,.F.);
#147=ORIENTED_EDGE('',*,*,#112,.T.);
#148=ORIENTED_EDGE('',*,*,#113,.T.);
#149=ORIENTED_EDGE('',*,*,#114,.T.);
#150=ORIENTED_EDGE('',*,*,#115,.F.);
#151=ORIENTED_EDGE('',*,*,#114,.F.);
#152=ORIENTED_EDGE('',*,*,#115,.T.);
#153=ORIENTED_EDGE('',*,*,#116,.T.);
#154=ORIENTED_EDGE('',*,*,#117,.F.);
#155=ORIENTED_EDGE('',*,*,#116,.F.);
#156=ORIENTED_EDGE('',*,*,#118,.F.);
#157=ORIENTED_EDGE('',*,*,#117,.T.);
#158=ORIENTED_EDGE('',*,*,#119,.F.);
#159=ORIENTED_EDGE('',*,*,#120,.T.);
#160=ORIENTED_EDGE('',*,*,#118,.T.);
#161=ORIENTED_EDGE('',*,*,#120,.F.);
#162=ORIENTED_EDGE('',*,*,#102,.F.);
#163=ORIENTED_EDGE('',*,*,#121,.T.);
#164=ORIENTED_EDGE('',*,*,#119,.T.);
#165=ORIENTED_EDGE('',*,*,#121,.F.);
#166=CYLINDRICAL_SURFACE('',#205,31.5);
#167=CYLINDRICAL_SURFACE('',#210,21.45);
#168=CYLINDRICAL_SURFACE('',#214,16.);
#169=CYLINDRICAL_SURFACE('',#218,14.35);
#170=CYLINDRICAL_SURFACE('',#224,26.05);
#171=CYLINDRICAL_SURFACE('',#228,30.667);
#172=ADVANCED_FACE('',(#26),#166,.T.);
#173=ADVANCED_FACE('',(#27),#23,.T.);
#174=ADVANCED_FACE('',(#28),#167,.T.);
#175=ADVANCED_FACE('',(#29,#15),#19,.T.);
#176=ADVANCED_FACE('',(#30),#168,.F.);
#177=ADVANCED_FACE('',(#31,#16),#20,.T.);
#178=ADVANCED_FACE('',(#32),#169,.F.);
#179=ADVANCED_FACE('',(#33,#17),#21,.T.);
#180=ADVANCED_FACE('',(#34),#24,.F.);
#181=ADVANCED_FACE('',(#35),#170,.F.);
#182=ADVANCED_FACE('',(#36,#18),#22,.T.);
#183=ADVANCED_FACE('',(#37),#171,.T.);
#184=ADVANCED_FACE('',(#38),#25,.T.);
#185=CLOSED_SHELL('',(#172,#173,#174,#175,#176,#177,#178,#179,#180,#181,
#182,#183,#184));
#186=DERIVED_UNIT_ELEMENT(#188,1.);
#187=DERIVED_UNIT_ELEMENT(#348,-3.);
#188=(
MASS_UNIT()
NAMED_UNIT(*)
SI_UNIT($,.GRAM.)
);
#189=DERIVED_UNIT((#186,#187));
#190=MEASURE_REPRESENTATION_ITEM('density measure',
POSITIVE_RATIO_MEASURE(1.),#189);
#191=PROPERTY_DEFINITION_REPRESENTATION(#196,#193);
#192=PROPERTY_DEFINITION_REPRESENTATION(#197,#194);
#193=REPRESENTATION('material name',(#195),#345);
#194=REPRESENTATION('density',(#190),#345);
#195=DESCRIPTIVE_REPRESENTATION_ITEM('PE','PE');
#196=PROPERTY_DEFINITION('material property','material name',#355);
#197=PROPERTY_DEFINITION('material property','density of part',#355);
#198=DATE_TIME_ROLE('creation_date');
#199=APPLIED_DATE_AND_TIME_ASSIGNMENT(#200,#198,(#355));
#200=DATE_AND_TIME(#201,#202);
#201=CALENDAR_DATE(2021,5,8);
#202=LOCAL_TIME(0,0,0.,#203);
#203=COORDINATED_UNIVERSAL_TIME_OFFSET(0,0,.BEHIND.);
#204=AXIS2_PLACEMENT_3D('placement',#294,#231,#232);
#205=AXIS2_PLACEMENT_3D('',#295,#233,#234);
#206=AXIS2_PLACEMENT_3D('',#297,#235,#236);
#207=AXIS2_PLACEMENT_3D('',#300,#238,#239);
#208=AXIS2_PLACEMENT_3D('',#301,#240,#241);
#209=AXIS2_PLACEMENT_3D('',#303,#242,#243);
#210=AXIS2_PLACEMENT_3D('',#305,#245,#246);
#211=AXIS2_PLACEMENT_3D('',#307,#247,#248);
#212=AXIS2_PLACEMENT_3D('',#309,#250,#251);
#213=AXIS2_PLACEMENT_3D('',#311,#252,#253);
#214=AXIS2_PLACEMENT_3D('',#312,#254,#255);
#215=AXIS2_PLACEMENT_3D('',#315,#257,#258);
#216=AXIS2_PLACEMENT_3D('',#316,#259,#260);
#217=AXIS2_PLACEMENT_3D('',#318,#261,#262);
#218=AXIS2_PLACEMENT_3D('',#319,#263,#264);
#219=AXIS2_PLACEMENT_3D('',#322,#266,#267);
#220=AXIS2_PLACEMENT_3D('',#323,#268,#269);
#221=AXIS2_PLACEMENT_3D('',#325,#270,#271);
#222=AXIS2_PLACEMENT_3D('',#326,#272,#273);
#223=AXIS2_PLACEMENT_3D('',#329,#275,#276);
#224=AXIS2_PLACEMENT_3D('',#330,#277,#278);
#225=AXIS2_PLACEMENT_3D('',#333,#280,#281);
#226=AXIS2_PLACEMENT_3D('',#334,#282,#283);
#227=AXIS2_PLACEMENT_3D('',#336,#284,#285);
#228=AXIS2_PLACEMENT_3D('',#337,#286,#287);
#229=AXIS2_PLACEMENT_3D('',#339,#288,#289);
#230=AXIS2_PLACEMENT_3D('',#341,#291,#292);
#231=DIRECTION('axis',(0.,0.,1.));
#232=DIRECTION('refdir',(1.,0.,0.));
#233=DIRECTION('center_axis',(1.,0.,0.));
#234=DIRECTION('ref_axis',(0.,1.,0.));
#235=DIRECTION('center_axis',(1.,0.,0.));
#236=DIRECTION('ref_axis',(0.,0.,-1.));
#237=DIRECTION('',(-1.,0.,0.));
#238=DIRECTION('center_axis',(1.,0.,0.));
#239=DIRECTION('ref_axis',(0.,0.,-1.));
#240=DIRECTION('center_axis',(-1.,0.,0.));
#241=DIRECTION('ref_axis',(0.,1.,0.));
#242=DIRECTION('center_axis',(1.,0.,0.));
#243=DIRECTION('ref_axis',(0.,0.,-1.));
#244=DIRECTION('',(-0.929858803619878,-0.36791657387322,-4.50567854547099E-17));
#245=DIRECTION('center_axis',(1.,0.,0.));
#246=DIRECTION('ref_axis',(0.,1.,0.));
#247=DIRECTION('center_axis',(1.,0.,0.));
#248=DIRECTION('ref_axis',(0.,0.,-1.));
#249=DIRECTION('',(-1.,0.,0.));
#250=DIRECTION('center_axis',(1.,0.,0.));
#251=DIRECTION('ref_axis',(0.,0.,-1.));
#252=DIRECTION('center_axis',(1.,0.,0.));
#253=DIRECTION('ref_axis',(0.,0.,-1.));
#254=DIRECTION('center_axis',(1.,0.,0.));
#255=DIRECTION('ref_axis',(0.,1.,0.));
#256=DIRECTION('',(-1.,0.,0.));
#257=DIRECTION('center_axis',(1.,0.,0.));
#258=DIRECTION('ref_axis',(0.,0.,-1.));
#259=DIRECTION('center_axis',(1.,0.,0.));
#260=DIRECTION('ref_axis',(0.,0.,-1.));
#261=DIRECTION('center_axis',(1.,0.,0.));
#262=DIRECTION('ref_axis',(0.,0.,-1.));
#263=DIRECTION('center_axis',(1.,0.,0.));
#264=DIRECTION('ref_axis',(0.,1.,0.));
#265=DIRECTION('',(-1.,0.,0.));
#266=DIRECTION('center_axis',(1.,0.,0.));
#267=DIRECTION('ref_axis',(0.,0.,-1.));
#268=DIRECTION('center_axis',(-1.,0.,0.));
#269=DIRECTION('ref_axis',(0.,0.,1.));
#270=DIRECTION('center_axis',(1.,0.,0.));
#271=DIRECTION('ref_axis',(0.,0.,-1.));
#272=DIRECTION('center_axis',(-1.,0.,0.));
#273=DIRECTION('ref_axis',(0.,1.,0.));
#274=DIRECTION('',(-0.934459668856728,-0.356068992303701,-4.36058751700352E-17));
#275=DIRECTION('center_axis',(1.,0.,0.));
#276=DIRECTION('ref_axis',(0.,0.,-1.));
#277=DIRECTION('center_axis',(1.,0.,0.));
#278=DIRECTION('ref_axis',(0.,1.,0.));
#279=DIRECTION('',(-1.,0.,0.));
#280=DIRECTION('center_axis',(1.,0.,0.));
#281=DIRECTION('ref_axis',(0.,0.,-1.));
#282=DIRECTION('center_axis',(-1.,0.,0.));
#283=DIRECTION('ref_axis',(0.,0.,1.));
#284=DIRECTION('center_axis',(1.,0.,0.));
#285=DIRECTION('ref_axis',(0.,0.,-1.));
#286=DIRECTION('center_axis',(1.,0.,0.));
#287=DIRECTION('ref_axis',(0.,1.,0.));
#288=DIRECTION('center_axis',(1.,0.,0.));
#289=DIRECTION('ref_axis',(0.,0.,-1.));
#290=DIRECTION('',(-1.,0.,0.));
#291=DIRECTION('center_axis',(1.,0.,0.));
#292=DIRECTION('ref_axis',(0.,1.,0.));
#293=DIRECTION('',(-0.707106781186547,0.707106781186548,8.65956056235493E-17));
#294=CARTESIAN_POINT('',(0.,0.,0.));
#295=CARTESIAN_POINT('Origin',(-53.5,0.,0.));
#296=CARTESIAN_POINT('',(-44.,-31.5,-3.85763741731416E-15));
#297=CARTESIAN_POINT('Origin',(-44.,0.,0.));
#298=CARTESIAN_POINT('',(-63.,-31.5,-3.85763741731416E-15));
#299=CARTESIAN_POINT('',(-53.5,-31.5,-3.85763741731416E-15));
#300=CARTESIAN_POINT('Origin',(-63.,0.,0.));
#301=CARTESIAN_POINT('Origin',(-31.3,0.,0.));
#302=CARTESIAN_POINT('',(-18.6,-21.45,-2.62686738417107E-15));
#303=CARTESIAN_POINT('Origin',(-18.6,0.,0.));
#304=CARTESIAN_POINT('',(-31.3,-26.475,-3.24225240074262E-15));
#305=CARTESIAN_POINT('Origin',(-9.30000000000001,0.,0.));
#306=CARTESIAN_POINT('',(-1.11022302462516E-15,-21.45,-2.62686738417107E-15));
#307=CARTESIAN_POINT('Origin',(0.,0.,0.));
#308=CARTESIAN_POINT('',(-9.30000000000001,-21.45,-2.62686738417107E-15));
#309=CARTESIAN_POINT('Origin',(0.,16.,0.));
#310=CARTESIAN_POINT('',(0.,-16.,-1.95943487863577E-15));
#311=CARTESIAN_POINT('Origin',(0.,0.,0.));
#312=CARTESIAN_POINT('Origin',(-9.30000000000001,0.,0.));
#313=CARTESIAN_POINT('',(-18.6,-16.,-1.95943487863577E-15));
#314=CARTESIAN_POINT('',(-9.30000000000001,-16.,-1.95943487863577E-15));
#315=CARTESIAN_POINT('Origin',(-18.6,0.,0.));
#316=CARTESIAN_POINT('Origin',(-18.6,14.35,0.));
#317=CARTESIAN_POINT('',(-18.6,-14.35,-1.75736815677645E-15));
#318=CARTESIAN_POINT('Origin',(-18.6,0.,0.));
#319=CARTESIAN_POINT('Origin',(-19.425,0.,0.));
#320=CARTESIAN_POINT('',(-20.25,-14.35,-1.75736815677645E-15));
#321=CARTESIAN_POINT('',(-19.425,-14.35,-1.75736815677645E-15));
#322=CARTESIAN_POINT('Origin',(-20.25,0.,0.));
#323=CARTESIAN_POINT('Origin',(-20.25,16.,0.));
#324=CARTESIAN_POINT('',(-20.25,-16.,-1.95943487863577E-15));
#325=CARTESIAN_POINT('Origin',(-20.25,0.,0.));
#326=CARTESIAN_POINT('Origin',(-33.4375,0.,0.));
#327=CARTESIAN_POINT('',(-46.625,-26.05,-3.19020491177886E-15));
#328=CARTESIAN_POINT('',(-33.4375,-21.025,-2.57481989520731E-15));
#329=CARTESIAN_POINT('Origin',(-46.625,0.,0.));
#330=CARTESIAN_POINT('Origin',(-55.8125,0.,0.));
#331=CARTESIAN_POINT('',(-65.,-26.05,-3.19020491177886E-15));
#332=CARTESIAN_POINT('',(-55.8125,-26.05,-3.19020491177886E-15));
#333=CARTESIAN_POINT('Origin',(-65.,0.,0.));
#334=CARTESIAN_POINT('Origin',(-65.,30.667,0.));
#335=CARTESIAN_POINT('',(-65.,-30.667,-3.75562433894519E-15));
#336=CARTESIAN_POINT('Origin',(-65.,0.,0.));
#337=CARTESIAN_POINT('Origin',(-64.4165,0.,0.));
#338=CARTESIAN_POINT('',(-63.833,-30.667,-3.75562433894519E-15));
#339=CARTESIAN_POINT('Origin',(-63.833,0.,0.));
#340=CARTESIAN_POINT('',(-64.4165,-30.667,-3.75562433894519E-15));
#341=CARTESIAN_POINT('Origin',(-63.4165,0.,0.));
#342=CARTESIAN_POINT('',(-63.4165,-31.0835,-3.80663087812968E-15));
#343=UNCERTAINTY_MEASURE_WITH_UNIT(LENGTH_MEASURE(0.01),#347,
'DISTANCE_ACCURACY_VALUE',
'Maximum model space distance between geometric entities at asserted c
onnectivities');
#344=UNCERTAINTY_MEASURE_WITH_UNIT(LENGTH_MEASURE(0.01),#347,
'DISTANCE_ACCURACY_VALUE',
'Maximum model space distance between geometric entities at asserted c
onnectivities');
#345=(
GEOMETRIC_REPRESENTATION_CONTEXT(3)
GLOBAL_UNCERTAINTY_ASSIGNED_CONTEXT((#343))
GLOBAL_UNIT_ASSIGNED_CONTEXT((#347,#349,#350))
REPRESENTATION_CONTEXT('','3D')
);
#346=(
GEOMETRIC_REPRESENTATION_CONTEXT(3)
GLOBAL_UNCERTAINTY_ASSIGNED_CONTEXT((#344))
GLOBAL_UNIT_ASSIGNED_CONTEXT((#347,#349,#350))
REPRESENTATION_CONTEXT('','3D')
);
#347=(
LENGTH_UNIT()
NAMED_UNIT(*)
SI_UNIT(.MILLI.,.METRE.)
);
#348=(
LENGTH_UNIT()
NAMED_UNIT(*)
SI_UNIT(.CENTI.,.METRE.)
);
#349=(
NAMED_UNIT(*)
PLANE_ANGLE_UNIT()
SI_UNIT($,.RADIAN.)
);
#350=(
NAMED_UNIT(*)
SI_UNIT($,.STERADIAN.)
SOLID_ANGLE_UNIT()
);
#351=SHAPE_DEFINITION_REPRESENTATION(#352,#353);
#352=PRODUCT_DEFINITION_SHAPE('',$,#355);
#353=SHAPE_REPRESENTATION('',(#204),#345);
#354=PRODUCT_DEFINITION_CONTEXT('part definition',#359,'design');
#355=PRODUCT_DEFINITION('RIE-RC-063-032','RIE-RC-063-032',#356,#354);
#356=PRODUCT_DEFINITION_FORMATION('0',$,#361);
#357=PRODUCT_RELATED_PRODUCT_CATEGORY('RIE-RC-063-032','RIE-RC-063-032',
(#361));
#358=APPLICATION_PROTOCOL_DEFINITION('international standard',
'automotive_design',2009,#359);
#359=APPLICATION_CONTEXT(
'Core Data for Automotive Mechanical Design Process');
#360=PRODUCT_CONTEXT('part definition',#359,'mechanical');
#361=PRODUCT('RIE-RC-063-032','RIE-RC-063-032',
'PE100 Reducer for socket welding, \X\D863-\X\D832, PN16',(#360));
#362=PRESENTATION_STYLE_ASSIGNMENT((#363));
#363=SURFACE_STYLE_USAGE(.BOTH.,#366);
#364=SURFACE_STYLE_RENDERING_WITH_PROPERTIES($,#370,(#365));
#365=SURFACE_STYLE_TRANSPARENT(0.);
#366=SURFACE_SIDE_STYLE('',(#367,#364));
#367=SURFACE_STYLE_FILL_AREA(#368);
#368=FILL_AREA_STYLE('',(#369));
#369=FILL_AREA_STYLE_COLOUR('',#370);
#370=COLOUR_RGB('',0.109803921568627,0.109803921568627,0.129411764705882);
ENDSEC;
END-ISO-10303-21;
