ISO-10303-21;
HEADER;
/* Generated by software containing ST-Developer
 * from STEP Tools, Inc. (www.steptools.com) 
 */

FILE_DESCRIPTION(
/* description */ (
'PE100 Segment Bend 90\X\B0, Curve Radius = 420, \X\D8280, SDR11 PN12,
8'),
/* implementation_level */ '2;1');

FILE_NAME(
/* name */ 
'S-GDLE11-0355',
/* time_stamp */ '2022-10-10T17:21:38+02:00',
/* author */ ('COAB Solutions'),
/* organization */ ('GPA Flowsystem'),
/* preprocessor_version */ 'ST-DEVELOPER v18.1',
/* originating_system */ 'www.coabsolutions.com',
/* authorisation */ '');

FILE_SCHEMA (('AUTOMOTIVE_DESIGN { 1 0 10303 214 3 1 1 }'));
ENDSEC;

DATA;
#10=MECHANICAL_DESIGN_GEOMETRIC_PRESENTATION_REPRESENTATION('',(#13),#401);
#11=SHAPE_REPRESENTATION_RELATIONSHIP('SRR','None',#408,#12);
#12=ADVANCED_BREP_SHAPE_REPRESENTATION('',(#14),#400);
#13=STYLED_ITEM('',(#417),#14);
#14=MANIFOLD_SOLID_BREP('Solid1',#209);
#15=FACE_BOUND('',#35,.T.);
#16=FACE_BOUND('',#40,.T.);
#17=PLANE('',#249);
#18=PLANE('',#260);
#19=FACE_OUTER_BOUND('',#29,.T.);
#20=FACE_OUTER_BOUND('',#30,.T.);
#21=FACE_OUTER_BOUND('',#31,.T.);
#22=FACE_OUTER_BOUND('',#32,.T.);
#23=FACE_OUTER_BOUND('',#33,.T.);
#24=FACE_OUTER_BOUND('',#34,.T.);
#25=FACE_OUTER_BOUND('',#36,.T.);
#26=FACE_OUTER_BOUND('',#37,.T.);
#27=FACE_OUTER_BOUND('',#38,.T.);
#28=FACE_OUTER_BOUND('',#39,.T.);
#29=EDGE_LOOP('',(#131,#132,#133,#134,#135,#136));
#30=EDGE_LOOP('',(#137,#138,#139,#140,#141,#142,#143,#144));
#31=EDGE_LOOP('',(#145,#146,#147,#148,#149,#150,#151,#152));
#32=EDGE_LOOP('',(#153,#154,#155,#156,#157,#158));
#33=EDGE_LOOP('',(#159,#160,#161,#162,#163,#164));
#34=EDGE_LOOP('',(#165));
#35=EDGE_LOOP('',(#166));
#36=EDGE_LOOP('',(#167,#168,#169,#170,#171,#172,#173,#174));
#37=EDGE_LOOP('',(#175,#176,#177,#178,#179,#180,#181,#182));
#38=EDGE_LOOP('',(#183,#184,#185,#186,#187,#188));
#39=EDGE_LOOP('',(#189));
#40=EDGE_LOOP('',(#190));
#41=CIRCLE('',#232,114.6);
#42=CIRCLE('',#243,114.6);
#43=CIRCLE('',#245,140.);
#44=CIRCLE('',#259,140.);
#45=LINE('',#343,#53);
#46=LINE('',#352,#54);
#47=LINE('',#360,#55);
#48=LINE('',#365,#56);
#49=LINE('',#370,#57);
#50=LINE('',#379,#58);
#51=LINE('',#387,#59);
#52=LINE('',#395,#60);
#53=VECTOR('',#269,140.);
#54=VECTOR('',#280,140.);
#55=VECTOR('',#289,140.);
#56=VECTOR('',#296,140.);
#57=VECTOR('',#301,140.);
#58=VECTOR('',#312,140.);
#59=VECTOR('',#321,140.);
#60=VECTOR('',#330,140.);
#61=ELLIPSE('',#230,118.642650274996,114.6);
#62=ELLIPSE('',#231,118.642650274996,114.6);
#63=ELLIPSE('',#233,118.642650274996,114.6);
#64=ELLIPSE('',#235,118.642650274996,114.6);
#65=ELLIPSE('',#236,118.642650274996,114.6);
#66=ELLIPSE('',#237,118.642650274996,114.6);
#67=ELLIPSE('',#239,118.642650274996,114.6);
#68=ELLIPSE('',#240,118.642650274996,114.6);
#69=ELLIPSE('',#241,118.642650274996,114.6);
#70=ELLIPSE('',#246,144.938665257412,140.);
#71=ELLIPSE('',#247,144.938665257412,140.);
#72=ELLIPSE('',#248,144.938665257412,140.);
#73=ELLIPSE('',#251,144.938665257412,140.);
#74=ELLIPSE('',#252,144.938665257412,140.);
#75=ELLIPSE('',#253,144.938665257412,140.);
#76=ELLIPSE('',#255,144.938665257412,140.);
#77=ELLIPSE('',#256,144.938665257412,140.);
#78=ELLIPSE('',#257,144.938665257412,140.);
#79=VERTEX_POINT('',#337);
#80=VERTEX_POINT('',#338);
#81=VERTEX_POINT('',#340);
#82=VERTEX_POINT('',#342);
#83=VERTEX_POINT('',#347);
#84=VERTEX_POINT('',#348);
#85=VERTEX_POINT('',#350);
#86=VERTEX_POINT('',#355);
#87=VERTEX_POINT('',#356);
#88=VERTEX_POINT('',#358);
#89=VERTEX_POINT('',#363);
#90=VERTEX_POINT('',#367);
#91=VERTEX_POINT('',#369);
#92=VERTEX_POINT('',#371);
#93=VERTEX_POINT('',#373);
#94=VERTEX_POINT('',#378);
#95=VERTEX_POINT('',#380);
#96=VERTEX_POINT('',#382);
#97=VERTEX_POINT('',#386);
#98=VERTEX_POINT('',#388);
#99=VERTEX_POINT('',#390);
#100=VERTEX_POINT('',#394);
#101=EDGE_CURVE('',#79,#80,#61,.F.);
#102=EDGE_CURVE('',#80,#81,#62,.F.);
#103=EDGE_CURVE('',#81,#82,#45,.T.);
#104=EDGE_CURVE('',#82,#82,#41,.T.);
#105=EDGE_CURVE('',#81,#79,#63,.F.);
#106=EDGE_CURVE('',#83,#84,#64,.F.);
#107=EDGE_CURVE('',#84,#85,#65,.F.);
#108=EDGE_CURVE('',#85,#81,#46,.T.);
#109=EDGE_CURVE('',#85,#83,#66,.F.);
#110=EDGE_CURVE('',#86,#87,#67,.F.);
#111=EDGE_CURVE('',#87,#88,#68,.F.);
#112=EDGE_CURVE('',#88,#85,#47,.T.);
#113=EDGE_CURVE('',#88,#86,#69,.F.);
#114=EDGE_CURVE('',#89,#89,#42,.T.);
#115=EDGE_CURVE('',#89,#88,#48,.T.);
#116=EDGE_CURVE('',#90,#90,#43,.T.);
#117=EDGE_CURVE('',#90,#91,#49,.T.);
#118=EDGE_CURVE('',#92,#91,#70,.T.);
#119=EDGE_CURVE('',#93,#92,#71,.T.);
#120=EDGE_CURVE('',#91,#93,#72,.T.);
#121=EDGE_CURVE('',#91,#94,#50,.T.);
#122=EDGE_CURVE('',#95,#94,#73,.T.);
#123=EDGE_CURVE('',#96,#95,#74,.T.);
#124=EDGE_CURVE('',#94,#96,#75,.T.);
#125=EDGE_CURVE('',#94,#97,#51,.T.);
#126=EDGE_CURVE('',#98,#97,#76,.T.);
#127=EDGE_CURVE('',#99,#98,#77,.T.);
#128=EDGE_CURVE('',#97,#99,#78,.T.);
#129=EDGE_CURVE('',#97,#100,#52,.T.);
#130=EDGE_CURVE('',#100,#100,#44,.T.);
#131=ORIENTED_EDGE('',*,*,#101,.T.);
#132=ORIENTED_EDGE('',*,*,#102,.T.);
#133=ORIENTED_EDGE('',*,*,#103,.T.);
#134=ORIENTED_EDGE('',*,*,#104,.F.);
#135=ORIENTED_EDGE('',*,*,#103,.F.);
#136=ORIENTED_EDGE('',*,*,#105,.T.);
#137=ORIENTED_EDGE('',*,*,#106,.T.);
#138=ORIENTED_EDGE('',*,*,#107,.T.);
#139=ORIENTED_EDGE('',*,*,#108,.T.);
#140=ORIENTED_EDGE('',*,*,#102,.F.);
#141=ORIENTED_EDGE('',*,*,#101,.F.);
#142=ORIENTED_EDGE('',*,*,#105,.F.);
#143=ORIENTED_EDGE('',*,*,#108,.F.);
#144=ORIENTED_EDGE('',*,*,#109,.T.);
#145=ORIENTED_EDGE('',*,*,#110,.T.);
#146=ORIENTED_EDGE('',*,*,#111,.T.);
#147=ORIENTED_EDGE('',*,*,#112,.T.);
#148=ORIENTED_EDGE('',*,*,#107,.F.);
#149=ORIENTED_EDGE('',*,*,#106,.F.);
#150=ORIENTED_EDGE('',*,*,#109,.F.);
#151=ORIENTED_EDGE('',*,*,#112,.F.);
#152=ORIENTED_EDGE('',*,*,#113,.T.);
#153=ORIENTED_EDGE('',*,*,#114,.F.);
#154=ORIENTED_EDGE('',*,*,#115,.T.);
#155=ORIENTED_EDGE('',*,*,#111,.F.);
#156=ORIENTED_EDGE('',*,*,#110,.F.);
#157=ORIENTED_EDGE('',*,*,#113,.F.);
#158=ORIENTED_EDGE('',*,*,#115,.F.);
#159=ORIENTED_EDGE('',*,*,#116,.F.);
#160=ORIENTED_EDGE('',*,*,#117,.T.);
#161=ORIENTED_EDGE('',*,*,#118,.F.);
#162=ORIENTED_EDGE('',*,*,#119,.F.);
#163=ORIENTED_EDGE('',*,*,#120,.F.);
#164=ORIENTED_EDGE('',*,*,#117,.F.);
#165=ORIENTED_EDGE('',*,*,#116,.T.);
#166=ORIENTED_EDGE('',*,*,#104,.T.);
#167=ORIENTED_EDGE('',*,*,#119,.T.);
#168=ORIENTED_EDGE('',*,*,#118,.T.);
#169=ORIENTED_EDGE('',*,*,#121,.T.);
#170=ORIENTED_EDGE('',*,*,#122,.F.);
#171=ORIENTED_EDGE('',*,*,#123,.F.);
#172=ORIENTED_EDGE('',*,*,#124,.F.);
#173=ORIENTED_EDGE('',*,*,#121,.F.);
#174=ORIENTED_EDGE('',*,*,#120,.T.);
#175=ORIENTED_EDGE('',*,*,#123,.T.);
#176=ORIENTED_EDGE('',*,*,#122,.T.);
#177=ORIENTED_EDGE('',*,*,#125,.T.);
#178=ORIENTED_EDGE('',*,*,#126,.F.);
#179=ORIENTED_EDGE('',*,*,#127,.F.);
#180=ORIENTED_EDGE('',*,*,#128,.F.);
#181=ORIENTED_EDGE('',*,*,#125,.F.);
#182=ORIENTED_EDGE('',*,*,#124,.T.);
#183=ORIENTED_EDGE('',*,*,#127,.T.);
#184=ORIENTED_EDGE('',*,*,#126,.T.);
#185=ORIENTED_EDGE('',*,*,#129,.T.);
#186=ORIENTED_EDGE('',*,*,#130,.T.);
#187=ORIENTED_EDGE('',*,*,#129,.F.);
#188=ORIENTED_EDGE('',*,*,#128,.T.);
#189=ORIENTED_EDGE('',*,*,#130,.F.);
#190=ORIENTED_EDGE('',*,*,#114,.T.);
#191=CYLINDRICAL_SURFACE('',#229,114.6);
#192=CYLINDRICAL_SURFACE('',#234,114.6);
#193=CYLINDRICAL_SURFACE('',#238,114.6);
#194=CYLINDRICAL_SURFACE('',#242,114.6);
#195=CYLINDRICAL_SURFACE('',#244,140.);
#196=CYLINDRICAL_SURFACE('',#250,140.);
#197=CYLINDRICAL_SURFACE('',#254,140.);
#198=CYLINDRICAL_SURFACE('',#258,140.);
#199=ADVANCED_FACE('',(#19),#191,.F.);
#200=ADVANCED_FACE('',(#20),#192,.F.);
#201=ADVANCED_FACE('',(#21),#193,.F.);
#202=ADVANCED_FACE('',(#22),#194,.F.);
#203=ADVANCED_FACE('',(#23),#195,.T.);
#204=ADVANCED_FACE('',(#24,#15),#17,.T.);
#205=ADVANCED_FACE('',(#25),#196,.T.);
#206=ADVANCED_FACE('',(#26),#197,.T.);
#207=ADVANCED_FACE('',(#27),#198,.T.);
#208=ADVANCED_FACE('',(#28,#16),#18,.F.);
#209=CLOSED_SHELL('',(#199,#200,#201,#202,#203,#204,#205,#206,#207,#208));
#210=DERIVED_UNIT_ELEMENT(#212,1.);
#211=DERIVED_UNIT_ELEMENT(#403,-3.);
#212=(
MASS_UNIT()
NAMED_UNIT(*)
SI_UNIT($,.GRAM.)
);
#213=DERIVED_UNIT((#210,#211));
#214=MEASURE_REPRESENTATION_ITEM('density measure',
POSITIVE_RATIO_MEASURE(1.),#213);
#215=PROPERTY_DEFINITION_REPRESENTATION(#220,#217);
#216=PROPERTY_DEFINITION_REPRESENTATION(#221,#218);
#217=REPRESENTATION('material name',(#219),#400);
#218=REPRESENTATION('density',(#214),#400);
#219=DESCRIPTIVE_REPRESENTATION_ITEM('PE','PE');
#220=PROPERTY_DEFINITION('material property','material name',#410);
#221=PROPERTY_DEFINITION('material property','density of part',#410);
#222=DATE_TIME_ROLE('creation_date');
#223=APPLIED_DATE_AND_TIME_ASSIGNMENT(#224,#222,(#410));
#224=DATE_AND_TIME(#225,#226);
#225=CALENDAR_DATE(2021,27,12);
#226=LOCAL_TIME(0,0,0.,#227);
#227=COORDINATED_UNIVERSAL_TIME_OFFSET(0,0,.BEHIND.);
#228=AXIS2_PLACEMENT_3D('placement',#335,#261,#262);
#229=AXIS2_PLACEMENT_3D('',#336,#263,#264);
#230=AXIS2_PLACEMENT_3D('',#339,#265,#266);
#231=AXIS2_PLACEMENT_3D('',#341,#267,#268);
#232=AXIS2_PLACEMENT_3D('',#344,#270,#271);
#233=AXIS2_PLACEMENT_3D('',#345,#272,#273);
#234=AXIS2_PLACEMENT_3D('',#346,#274,#275);
#235=AXIS2_PLACEMENT_3D('',#349,#276,#277);
#236=AXIS2_PLACEMENT_3D('',#351,#278,#279);
#237=AXIS2_PLACEMENT_3D('',#353,#281,#282);
#238=AXIS2_PLACEMENT_3D('',#354,#283,#284);
#239=AXIS2_PLACEMENT_3D('',#357,#285,#286);
#240=AXIS2_PLACEMENT_3D('',#359,#287,#288);
#241=AXIS2_PLACEMENT_3D('',#361,#290,#291);
#242=AXIS2_PLACEMENT_3D('',#362,#292,#293);
#243=AXIS2_PLACEMENT_3D('',#364,#294,#295);
#244=AXIS2_PLACEMENT_3D('',#366,#297,#298);
#245=AXIS2_PLACEMENT_3D('',#368,#299,#300);
#246=AXIS2_PLACEMENT_3D('',#372,#302,#303);
#247=AXIS2_PLACEMENT_3D('',#374,#304,#305);
#248=AXIS2_PLACEMENT_3D('',#375,#306,#307);
#249=AXIS2_PLACEMENT_3D('',#376,#308,#309);
#250=AXIS2_PLACEMENT_3D('',#377,#310,#311);
#251=AXIS2_PLACEMENT_3D('',#381,#313,#314);
#252=AXIS2_PLACEMENT_3D('',#383,#315,#316);
#253=AXIS2_PLACEMENT_3D('',#384,#317,#318);
#254=AXIS2_PLACEMENT_3D('',#385,#319,#320);
#255=AXIS2_PLACEMENT_3D('',#389,#322,#323);
#256=AXIS2_PLACEMENT_3D('',#391,#324,#325);
#257=AXIS2_PLACEMENT_3D('',#392,#326,#327);
#258=AXIS2_PLACEMENT_3D('',#393,#328,#329);
#259=AXIS2_PLACEMENT_3D('',#396,#331,#332);
#260=AXIS2_PLACEMENT_3D('',#397,#333,#334);
#261=DIRECTION('axis',(0.,0.,1.));
#262=DIRECTION('refdir',(1.,0.,0.));
#263=DIRECTION('center_axis',(1.,0.,0.));
#264=DIRECTION('ref_axis',(0.,1.,0.));
#265=DIRECTION('center_axis',(0.965925826289069,0.258819045102519,0.));
#266=DIRECTION('ref_axis',(-0.258819045102519,0.965925826289069,0.));
#267=DIRECTION('center_axis',(0.965925826289069,0.258819045102519,0.));
#268=DIRECTION('ref_axis',(-0.258819045102519,0.965925826289069,0.));
#269=DIRECTION('',(1.,0.,0.));
#270=DIRECTION('center_axis',(-1.,0.,0.));
#271=DIRECTION('ref_axis',(0.,1.,0.));
#272=DIRECTION('center_axis',(0.965925826289069,0.258819045102519,0.));
#273=DIRECTION('ref_axis',(-0.258819045102519,0.965925826289069,0.));
#274=DIRECTION('center_axis',(0.866025403784439,0.5,0.));
#275=DIRECTION('ref_axis',(-0.5,0.866025403784439,0.));
#276=DIRECTION('center_axis',(0.707106781186547,0.707106781186548,0.));
#277=DIRECTION('ref_axis',(-0.707106781186548,0.707106781186547,0.));
#278=DIRECTION('center_axis',(0.707106781186547,0.707106781186548,0.));
#279=DIRECTION('ref_axis',(-0.707106781186548,0.707106781186547,0.));
#280=DIRECTION('',(0.866025403784439,0.499999999999999,0.));
#281=DIRECTION('center_axis',(0.707106781186547,0.707106781186548,0.));
#282=DIRECTION('ref_axis',(-0.707106781186548,0.707106781186547,0.));
#283=DIRECTION('center_axis',(0.499999999999999,0.866025403784439,0.));
#284=DIRECTION('ref_axis',(-0.866025403784439,0.499999999999999,0.));
#285=DIRECTION('center_axis',(0.258819045102521,0.965925826289068,0.));
#286=DIRECTION('ref_axis',(-0.965925826289068,0.258819045102521,0.));
#287=DIRECTION('center_axis',(0.258819045102521,0.965925826289068,0.));
#288=DIRECTION('ref_axis',(-0.965925826289068,0.258819045102521,0.));
#289=DIRECTION('',(0.499999999999999,0.866025403784439,0.));
#290=DIRECTION('center_axis',(0.258819045102521,0.965925826289068,0.));
#291=DIRECTION('ref_axis',(-0.965925826289068,0.258819045102521,0.));
#292=DIRECTION('center_axis',(0.,1.,0.));
#293=DIRECTION('ref_axis',(-1.,0.,0.));
#294=DIRECTION('center_axis',(0.,1.,0.));
#295=DIRECTION('ref_axis',(-1.,0.,0.));
#296=DIRECTION('',(0.,1.,0.));
#297=DIRECTION('center_axis',(1.,0.,0.));
#298=DIRECTION('ref_axis',(0.,1.,0.));
#299=DIRECTION('center_axis',(1.,0.,0.));
#300=DIRECTION('ref_axis',(0.,1.,0.));
#301=DIRECTION('',(-1.,0.,0.));
#302=DIRECTION('center_axis',(-0.965925826289069,-0.258819045102519,0.));
#303=DIRECTION('ref_axis',(-0.258819045102519,0.965925826289069,0.));
#304=DIRECTION('center_axis',(-0.965925826289068,-0.25881904510252,0.));
#305=DIRECTION('ref_axis',(-0.25881904510252,0.965925826289068,0.));
#306=DIRECTION('center_axis',(-0.965925826289069,-0.258819045102519,0.));
#307=DIRECTION('ref_axis',(-0.258819045102519,0.965925826289069,0.));
#308=DIRECTION('center_axis',(1.,0.,0.));
#309=DIRECTION('ref_axis',(0.,0.,1.));
#310=DIRECTION('center_axis',(0.866025403784439,0.5,0.));
#311=DIRECTION('ref_axis',(-0.5,0.866025403784439,0.));
#312=DIRECTION('',(-0.866025403784439,-0.499999999999999,0.));
#313=DIRECTION('center_axis',(-0.707106781186548,-0.707106781186547,0.));
#314=DIRECTION('ref_axis',(-0.707106781186547,0.707106781186548,0.));
#315=DIRECTION('center_axis',(-0.707106781186548,-0.707106781186548,0.));
#316=DIRECTION('ref_axis',(-0.707106781186547,0.707106781186547,0.));
#317=DIRECTION('center_axis',(-0.707106781186548,-0.707106781186547,0.));
#318=DIRECTION('ref_axis',(-0.707106781186547,0.707106781186548,0.));
#319=DIRECTION('center_axis',(0.499999999999999,0.866025403784439,0.));
#320=DIRECTION('ref_axis',(-0.866025403784439,0.499999999999999,0.));
#321=DIRECTION('',(-0.499999999999999,-0.866025403784439,0.));
#322=DIRECTION('center_axis',(-0.258819045102521,-0.965925826289068,0.));
#323=DIRECTION('ref_axis',(-0.965925826289068,0.258819045102521,0.));
#324=DIRECTION('center_axis',(-0.258819045102521,-0.965925826289068,0.));
#325=DIRECTION('ref_axis',(-0.965925826289068,0.25881904510252,0.));
#326=DIRECTION('center_axis',(-0.258819045102521,-0.965925826289068,0.));
#327=DIRECTION('ref_axis',(-0.965925826289068,0.258819045102521,0.));
#328=DIRECTION('center_axis',(0.,1.,0.));
#329=DIRECTION('ref_axis',(-1.,0.,0.));
#330=DIRECTION('',(0.,-1.,0.));
#331=DIRECTION('center_axis',(0.,1.,0.));
#332=DIRECTION('ref_axis',(-1.,0.,0.));
#333=DIRECTION('center_axis',(0.,1.,0.));
#334=DIRECTION('ref_axis',(0.,0.,1.));
#335=CARTESIAN_POINT('',(0.,0.,0.));
#336=CARTESIAN_POINT('Origin',(307.390923627309,644.903810567666,0.));
#337=CARTESIAN_POINT('',(307.390923627309,644.903810567666,114.6));
#338=CARTESIAN_POINT('',(307.390923627309,644.903810567666,-114.6));
#339=CARTESIAN_POINT('Origin',(307.390923627309,644.903810567666,0.));
#340=CARTESIAN_POINT('',(338.097901079915,530.303810567666,-1.40344523182287E-14));
#341=CARTESIAN_POINT('Origin',(307.390923627309,644.903810567666,0.));
#342=CARTESIAN_POINT('',(644.903810567667,530.303810567666,1.40344523182287E-14));
#343=CARTESIAN_POINT('',(307.390923627309,530.303810567666,-1.40344523182287E-14));
#344=CARTESIAN_POINT('Origin',(644.903810567667,644.903810567666,0.));
#345=CARTESIAN_POINT('Origin',(307.390923627309,644.903810567666,0.));
#346=CARTESIAN_POINT('Origin',(112.512886940357,532.390923627309,0.));
#347=CARTESIAN_POINT('',(112.512886940357,532.390923627309,114.6));
#348=CARTESIAN_POINT('',(112.512886940357,532.390923627309,-114.6));
#349=CARTESIAN_POINT('Origin',(112.512886940357,532.390923627309,0.));
#350=CARTESIAN_POINT('',(196.40590948775,448.497901079915,-1.40344523182287E-14));
#351=CARTESIAN_POINT('Origin',(112.512886940357,532.390923627309,0.));
#352=CARTESIAN_POINT('',(169.812886940357,433.144412353612,-1.40344523182287E-14));
#353=CARTESIAN_POINT('Origin',(112.512886940357,532.390923627309,0.));
#354=CARTESIAN_POINT('Origin',(0.,337.512886940357,0.));
#355=CARTESIAN_POINT('',(0.,337.512886940357,114.6));
#356=CARTESIAN_POINT('',(0.,337.512886940357,-114.6));
#357=CARTESIAN_POINT('Origin',(0.,337.512886940357,0.));
#358=CARTESIAN_POINT('',(114.6,306.805909487751,-1.40344523182287E-14));
#359=CARTESIAN_POINT('Origin',(0.,337.512886940357,0.));
#360=CARTESIAN_POINT('',(99.2465112736967,280.212886940357,-1.40344523182287E-14));
#361=CARTESIAN_POINT('Origin',(0.,337.512886940357,0.));
#362=CARTESIAN_POINT('Origin',(0.,0.,0.));
#363=CARTESIAN_POINT('',(114.6,0.,1.40344523182287E-14));
#364=CARTESIAN_POINT('Origin',(0.,0.,0.));
#365=CARTESIAN_POINT('',(114.6,0.,-1.40344523182287E-14));
#366=CARTESIAN_POINT('Origin',(307.390923627309,644.903810567666,0.));
#367=CARTESIAN_POINT('',(644.903810567666,504.903810567666,-1.7145055188063E-14));
#368=CARTESIAN_POINT('Origin',(644.903810567666,644.903810567666,0.));
#369=CARTESIAN_POINT('',(344.903810567665,504.903810567666,-1.7145055188063E-14));
#370=CARTESIAN_POINT('',(307.390923627309,504.903810567666,-1.7145055188063E-14));
#371=CARTESIAN_POINT('',(307.390923627309,644.903810567666,-140.));
#372=CARTESIAN_POINT('Origin',(307.390923627309,644.903810567666,0.));
#373=CARTESIAN_POINT('',(307.390923627309,644.903810567666,140.));
#374=CARTESIAN_POINT('Origin',(307.390923627309,644.903810567666,0.));
#375=CARTESIAN_POINT('Origin',(307.390923627309,644.903810567666,0.));
#376=CARTESIAN_POINT('Origin',(644.903810567666,644.903810567666,0.));
#377=CARTESIAN_POINT('Origin',(112.512886940357,532.390923627309,0.));
#378=CARTESIAN_POINT('',(215.,429.903810567666,-1.71450551880629E-14));
#379=CARTESIAN_POINT('',(182.512886940357,411.147367097487,-1.71450551880629E-14));
#380=CARTESIAN_POINT('',(112.512886940357,532.390923627308,-140.));
#381=CARTESIAN_POINT('Origin',(112.512886940357,532.390923627309,0.));
#382=CARTESIAN_POINT('',(112.512886940357,532.390923627308,140.));
#383=CARTESIAN_POINT('Origin',(112.512886940357,532.390923627309,0.));
#384=CARTESIAN_POINT('Origin',(112.512886940357,532.390923627309,0.));
#385=CARTESIAN_POINT('Origin',(0.,337.512886940357,0.));
#386=CARTESIAN_POINT('',(140.,300.,-1.71450551880629E-14));
#387=CARTESIAN_POINT('',(121.243556529821,267.512886940357,-1.71450551880629E-14));
#388=CARTESIAN_POINT('',(0.,337.512886940357,-140.));
#389=CARTESIAN_POINT('Origin',(0.,337.512886940357,0.));
#390=CARTESIAN_POINT('',(0.,337.512886940357,140.));
#391=CARTESIAN_POINT('Origin',(7.10542735760099E-14,337.512886940357,0.));
#392=CARTESIAN_POINT('Origin',(0.,337.512886940357,0.));
#393=CARTESIAN_POINT('Origin',(0.,0.,0.));
#394=CARTESIAN_POINT('',(140.,0.,-1.71450551880629E-14));
#395=CARTESIAN_POINT('',(140.,0.,-1.71450551880629E-14));
#396=CARTESIAN_POINT('Origin',(0.,0.,0.));
#397=CARTESIAN_POINT('Origin',(0.,0.,0.));
#398=UNCERTAINTY_MEASURE_WITH_UNIT(LENGTH_MEASURE(0.01),#402,
'DISTANCE_ACCURACY_VALUE',
'Maximum model space distance between geometric entities at asserted c
onnectivities');
#399=UNCERTAINTY_MEASURE_WITH_UNIT(LENGTH_MEASURE(0.01),#402,
'DISTANCE_ACCURACY_VALUE',
'Maximum model space distance between geometric entities at asserted c
onnectivities');
#400=(
GEOMETRIC_REPRESENTATION_CONTEXT(3)
GLOBAL_UNCERTAINTY_ASSIGNED_CONTEXT((#398))
GLOBAL_UNIT_ASSIGNED_CONTEXT((#402,#404,#405))
REPRESENTATION_CONTEXT('','3D')
);
#401=(
GEOMETRIC_REPRESENTATION_CONTEXT(3)
GLOBAL_UNCERTAINTY_ASSIGNED_CONTEXT((#399))
GLOBAL_UNIT_ASSIGNED_CONTEXT((#402,#404,#405))
REPRESENTATION_CONTEXT('','3D')
);
#402=(
LENGTH_UNIT()
NAMED_UNIT(*)
SI_UNIT(.MILLI.,.METRE.)
);
#403=(
LENGTH_UNIT()
NAMED_UNIT(*)
SI_UNIT(.CENTI.,.METRE.)
);
#404=(
NAMED_UNIT(*)
PLANE_ANGLE_UNIT()
SI_UNIT($,.RADIAN.)
);
#405=(
NAMED_UNIT(*)
SI_UNIT($,.STERADIAN.)
SOLID_ANGLE_UNIT()
);
#406=SHAPE_DEFINITION_REPRESENTATION(#407,#408);
#407=PRODUCT_DEFINITION_SHAPE('',$,#410);
#408=SHAPE_REPRESENTATION('',(#228),#400);
#409=PRODUCT_DEFINITION_CONTEXT('part definition',#414,'design');
#410=PRODUCT_DEFINITION('S-GDLE11-280','S-GDLE11-280',#411,#409);
#411=PRODUCT_DEFINITION_FORMATION('0',$,#416);
#412=PRODUCT_RELATED_PRODUCT_CATEGORY('S-GDLE11-280','S-GDLE11-280',(#416));
#413=APPLICATION_PROTOCOL_DEFINITION('international standard',
'automotive_design',2009,#414);
#414=APPLICATION_CONTEXT(
'Core Data for Automotive Mechanical Design Process');
#415=PRODUCT_CONTEXT('part definition',#414,'mechanical');
#416=PRODUCT('S-GDLE11-280','S-GDLE11-280',
'PE100 Segment Bend 90\X\B0, Curve Radius = 420, \X\D8280, SDR11 PN12,
8',(#415));
#417=PRESENTATION_STYLE_ASSIGNMENT((#418));
#418=SURFACE_STYLE_USAGE(.BOTH.,#421);
#419=SURFACE_STYLE_RENDERING_WITH_PROPERTIES($,#425,(#420));
#420=SURFACE_STYLE_TRANSPARENT(0.);
#421=SURFACE_SIDE_STYLE('',(#422,#419));
#422=SURFACE_STYLE_FILL_AREA(#423);
#423=FILL_AREA_STYLE('',(#424));
#424=FILL_AREA_STYLE_COLOUR('',#425);
#425=COLOUR_RGB('',0.109803921568627,0.109803921568627,0.129411764705882);
ENDSEC;
END-ISO-10303-21;
