ISO-10303-21;
HEADER;
/* Generated by software containing ST-Developer
 * from STEP Tools, Inc. (www.steptools.com) 
 */

FILE_DESCRIPTION(
/* description */ (
'PE100 Segment Bend 60°, Curve Radius = 381, Ø315, SDR11 PN12,8
'),
/* implementation_level */ '2;1');

FILE_NAME(
/* name */ 
'S-JEL11-315',
/* time_stamp */ '2022-10-10T17:24:13+02:00',
/* author */ ('COAB Solutions'),
/* organization */ ('GPA Flowsystem'),
/* preprocessor_version */ 'ST-DEVELOPER v18.1',
/* originating_system */ 'www.coabsolutions.com',
/* authorisation */ '');

FILE_SCHEMA (('AUTOMOTIVE_DESIGN { 1 0 10303 214 3 1 1 }'));
ENDSEC;

DATA;
#10=MECHANICAL_DESIGN_GEOMETRIC_PRESENTATION_REPRESENTATION('',(#13),#311);
#11=SHAPE_REPRESENTATION_RELATIONSHIP('SRR','None',#318,#12);
#12=ADVANCED_BREP_SHAPE_REPRESENTATION('',(#14),#310);
#13=STYLED_ITEM('',(#327),#14);
#14=MANIFOLD_SOLID_BREP('Solid1',#161);
#15=FACE_BOUND('',#32,.T.);
#16=FACE_BOUND('',#36,.T.);
#17=PLANE('',#197);
#18=PLANE('',#204);
#19=FACE_OUTER_BOUND('',#27,.T.);
#20=FACE_OUTER_BOUND('',#28,.T.);
#21=FACE_OUTER_BOUND('',#29,.T.);
#22=FACE_OUTER_BOUND('',#30,.T.);
#23=FACE_OUTER_BOUND('',#31,.T.);
#24=FACE_OUTER_BOUND('',#33,.T.);
#25=FACE_OUTER_BOUND('',#34,.T.);
#26=FACE_OUTER_BOUND('',#35,.T.);
#27=EDGE_LOOP('',(#103,#104,#105,#106,#107,#108));
#28=EDGE_LOOP('',(#109,#110,#111,#112,#113,#114,#115,#116));
#29=EDGE_LOOP('',(#117,#118,#119,#120,#121,#122));
#30=EDGE_LOOP('',(#123,#124,#125,#126,#127,#128));
#31=EDGE_LOOP('',(#129));
#32=EDGE_LOOP('',(#130));
#33=EDGE_LOOP('',(#131,#132,#133,#134,#135,#136,#137,#138));
#34=EDGE_LOOP('',(#139,#140,#141,#142,#143,#144));
#35=EDGE_LOOP('',(#145));
#36=EDGE_LOOP('',(#146));
#37=CIRCLE('',#184,128.9);
#38=CIRCLE('',#191,128.9);
#39=CIRCLE('',#193,157.5);
#40=CIRCLE('',#203,157.5);
#41=LINE('',#269,#47);
#42=LINE('',#278,#48);
#43=LINE('',#283,#49);
#44=LINE('',#288,#50);
#45=LINE('',#297,#51);
#46=LINE('',#305,#52);
#47=VECTOR('',#213,157.5);
#48=VECTOR('',#224,157.5);
#49=VECTOR('',#231,157.5);
#50=VECTOR('',#236,157.5);
#51=VECTOR('',#247,157.5);
#52=VECTOR('',#256,157.5);
#53=ELLIPSE('',#182,133.44709965486,128.9);
#54=ELLIPSE('',#183,133.44709965486,128.9);
#55=ELLIPSE('',#185,133.44709965486,128.9);
#56=ELLIPSE('',#187,133.44709965486,128.9);
#57=ELLIPSE('',#188,133.44709965486,128.9);
#58=ELLIPSE('',#189,133.44709965486,128.9);
#59=ELLIPSE('',#194,163.055998414588,157.5);
#60=ELLIPSE('',#195,163.055998414588,157.5);
#61=ELLIPSE('',#196,163.055998414588,157.5);
#62=ELLIPSE('',#199,163.055998414588,157.5);
#63=ELLIPSE('',#200,163.055998414588,157.5);
#64=ELLIPSE('',#201,163.055998414588,157.5);
#65=VERTEX_POINT('',#263);
#66=VERTEX_POINT('',#264);
#67=VERTEX_POINT('',#266);
#68=VERTEX_POINT('',#268);
#69=VERTEX_POINT('',#273);
#70=VERTEX_POINT('',#274);
#71=VERTEX_POINT('',#276);
#72=VERTEX_POINT('',#281);
#73=VERTEX_POINT('',#285);
#74=VERTEX_POINT('',#287);
#75=VERTEX_POINT('',#289);
#76=VERTEX_POINT('',#291);
#77=VERTEX_POINT('',#296);
#78=VERTEX_POINT('',#298);
#79=VERTEX_POINT('',#300);
#80=VERTEX_POINT('',#304);
#81=EDGE_CURVE('',#65,#66,#53,.F.);
#82=EDGE_CURVE('',#66,#67,#54,.F.);
#83=EDGE_CURVE('',#67,#68,#41,.T.);
#84=EDGE_CURVE('',#68,#68,#37,.T.);
#85=EDGE_CURVE('',#67,#65,#55,.F.);
#86=EDGE_CURVE('',#69,#70,#56,.F.);
#87=EDGE_CURVE('',#70,#71,#57,.F.);
#88=EDGE_CURVE('',#71,#67,#42,.T.);
#89=EDGE_CURVE('',#71,#69,#58,.F.);
#90=EDGE_CURVE('',#72,#72,#38,.T.);
#91=EDGE_CURVE('',#72,#71,#43,.T.);
#92=EDGE_CURVE('',#73,#73,#39,.T.);
#93=EDGE_CURVE('',#73,#74,#44,.T.);
#94=EDGE_CURVE('',#75,#74,#59,.T.);
#95=EDGE_CURVE('',#76,#75,#60,.T.);
#96=EDGE_CURVE('',#74,#76,#61,.T.);
#97=EDGE_CURVE('',#74,#77,#45,.T.);
#98=EDGE_CURVE('',#78,#77,#62,.T.);
#99=EDGE_CURVE('',#79,#78,#63,.T.);
#100=EDGE_CURVE('',#77,#79,#64,.T.);
#101=EDGE_CURVE('',#77,#80,#46,.T.);
#102=EDGE_CURVE('',#80,#80,#40,.T.);
#103=ORIENTED_EDGE('',*,*,#81,.T.);
#104=ORIENTED_EDGE('',*,*,#82,.T.);
#105=ORIENTED_EDGE('',*,*,#83,.T.);
#106=ORIENTED_EDGE('',*,*,#84,.F.);
#107=ORIENTED_EDGE('',*,*,#83,.F.);
#108=ORIENTED_EDGE('',*,*,#85,.T.);
#109=ORIENTED_EDGE('',*,*,#86,.T.);
#110=ORIENTED_EDGE('',*,*,#87,.T.);
#111=ORIENTED_EDGE('',*,*,#88,.T.);
#112=ORIENTED_EDGE('',*,*,#82,.F.);
#113=ORIENTED_EDGE('',*,*,#81,.F.);
#114=ORIENTED_EDGE('',*,*,#85,.F.);
#115=ORIENTED_EDGE('',*,*,#88,.F.);
#116=ORIENTED_EDGE('',*,*,#89,.T.);
#117=ORIENTED_EDGE('',*,*,#90,.F.);
#118=ORIENTED_EDGE('',*,*,#91,.T.);
#119=ORIENTED_EDGE('',*,*,#87,.F.);
#120=ORIENTED_EDGE('',*,*,#86,.F.);
#121=ORIENTED_EDGE('',*,*,#89,.F.);
#122=ORIENTED_EDGE('',*,*,#91,.F.);
#123=ORIENTED_EDGE('',*,*,#92,.F.);
#124=ORIENTED_EDGE('',*,*,#93,.T.);
#125=ORIENTED_EDGE('',*,*,#94,.F.);
#126=ORIENTED_EDGE('',*,*,#95,.F.);
#127=ORIENTED_EDGE('',*,*,#96,.F.);
#128=ORIENTED_EDGE('',*,*,#93,.F.);
#129=ORIENTED_EDGE('',*,*,#92,.T.);
#130=ORIENTED_EDGE('',*,*,#84,.T.);
#131=ORIENTED_EDGE('',*,*,#95,.T.);
#132=ORIENTED_EDGE('',*,*,#94,.T.);
#133=ORIENTED_EDGE('',*,*,#97,.T.);
#134=ORIENTED_EDGE('',*,*,#98,.F.);
#135=ORIENTED_EDGE('',*,*,#99,.F.);
#136=ORIENTED_EDGE('',*,*,#100,.F.);
#137=ORIENTED_EDGE('',*,*,#97,.F.);
#138=ORIENTED_EDGE('',*,*,#96,.T.);
#139=ORIENTED_EDGE('',*,*,#99,.T.);
#140=ORIENTED_EDGE('',*,*,#98,.T.);
#141=ORIENTED_EDGE('',*,*,#101,.T.);
#142=ORIENTED_EDGE('',*,*,#102,.T.);
#143=ORIENTED_EDGE('',*,*,#101,.F.);
#144=ORIENTED_EDGE('',*,*,#100,.T.);
#145=ORIENTED_EDGE('',*,*,#102,.F.);
#146=ORIENTED_EDGE('',*,*,#90,.T.);
#147=CYLINDRICAL_SURFACE('',#181,128.9);
#148=CYLINDRICAL_SURFACE('',#186,128.9);
#149=CYLINDRICAL_SURFACE('',#190,128.9);
#150=CYLINDRICAL_SURFACE('',#192,157.5);
#151=CYLINDRICAL_SURFACE('',#198,157.5);
#152=CYLINDRICAL_SURFACE('',#202,157.5);
#153=ADVANCED_FACE('',(#19),#147,.F.);
#154=ADVANCED_FACE('',(#20),#148,.F.);
#155=ADVANCED_FACE('',(#21),#149,.F.);
#156=ADVANCED_FACE('',(#22),#150,.T.);
#157=ADVANCED_FACE('',(#23,#15),#17,.T.);
#158=ADVANCED_FACE('',(#24),#151,.T.);
#159=ADVANCED_FACE('',(#25),#152,.T.);
#160=ADVANCED_FACE('',(#26,#16),#18,.F.);
#161=CLOSED_SHELL('',(#153,#154,#155,#156,#157,#158,#159,#160));
#162=DERIVED_UNIT_ELEMENT(#164,1.);
#163=DERIVED_UNIT_ELEMENT(#313,-3.);
#164=(
MASS_UNIT()
NAMED_UNIT(*)
SI_UNIT($,.GRAM.)
);
#165=DERIVED_UNIT((#162,#163));
#166=MEASURE_REPRESENTATION_ITEM('density measure',
POSITIVE_RATIO_MEASURE(1.),#165);
#167=PROPERTY_DEFINITION_REPRESENTATION(#172,#169);
#168=PROPERTY_DEFINITION_REPRESENTATION(#173,#170);
#169=REPRESENTATION('material name',(#171),#310);
#170=REPRESENTATION('density',(#166),#310);
#171=DESCRIPTIVE_REPRESENTATION_ITEM('PE','PE');
#172=PROPERTY_DEFINITION('material property','material name',#320);
#173=PROPERTY_DEFINITION('material property','density of part',#320);
#174=DATE_TIME_ROLE('creation_date');
#175=APPLIED_DATE_AND_TIME_ASSIGNMENT(#176,#174,(#320));
#176=DATE_AND_TIME(#177,#178);
#177=CALENDAR_DATE(2021,27,12);
#178=LOCAL_TIME(0,0,0.,#179);
#179=COORDINATED_UNIVERSAL_TIME_OFFSET(0,0,.BEHIND.);
#180=AXIS2_PLACEMENT_3D('placement',#261,#205,#206);
#181=AXIS2_PLACEMENT_3D('',#262,#207,#208);
#182=AXIS2_PLACEMENT_3D('',#265,#209,#210);
#183=AXIS2_PLACEMENT_3D('',#267,#211,#212);
#184=AXIS2_PLACEMENT_3D('',#270,#214,#215);
#185=AXIS2_PLACEMENT_3D('',#271,#216,#217);
#186=AXIS2_PLACEMENT_3D('',#272,#218,#219);
#187=AXIS2_PLACEMENT_3D('',#275,#220,#221);
#188=AXIS2_PLACEMENT_3D('',#277,#222,#223);
#189=AXIS2_PLACEMENT_3D('',#279,#225,#226);
#190=AXIS2_PLACEMENT_3D('',#280,#227,#228);
#191=AXIS2_PLACEMENT_3D('',#282,#229,#230);
#192=AXIS2_PLACEMENT_3D('',#284,#232,#233);
#193=AXIS2_PLACEMENT_3D('',#286,#234,#235);
#194=AXIS2_PLACEMENT_3D('',#290,#237,#238);
#195=AXIS2_PLACEMENT_3D('',#292,#239,#240);
#196=AXIS2_PLACEMENT_3D('',#293,#241,#242);
#197=AXIS2_PLACEMENT_3D('',#294,#243,#244);
#198=AXIS2_PLACEMENT_3D('',#295,#245,#246);
#199=AXIS2_PLACEMENT_3D('',#299,#248,#249);
#200=AXIS2_PLACEMENT_3D('',#301,#250,#251);
#201=AXIS2_PLACEMENT_3D('',#302,#252,#253);
#202=AXIS2_PLACEMENT_3D('',#303,#254,#255);
#203=AXIS2_PLACEMENT_3D('',#306,#257,#258);
#204=AXIS2_PLACEMENT_3D('',#307,#259,#260);
#205=DIRECTION('axis',(0.,0.,1.));
#206=DIRECTION('refdir',(1.,0.,0.));
#207=DIRECTION('center_axis',(0.866025403784439,0.5,0.));
#208=DIRECTION('ref_axis',(-0.5,0.866025403784439,0.));
#209=DIRECTION('center_axis',(0.707106781186547,0.707106781186548,0.));
#210=DIRECTION('ref_axis',(-0.707106781186548,0.707106781186547,0.));
#211=DIRECTION('center_axis',(0.707106781186547,0.707106781186548,0.));
#212=DIRECTION('ref_axis',(-0.707106781186548,0.707106781186547,0.));
#213=DIRECTION('',(0.866025403784439,0.5,0.));
#214=DIRECTION('center_axis',(-0.866025403784439,-0.5,0.));
#215=DIRECTION('ref_axis',(-0.5,0.866025403784439,0.));
#216=DIRECTION('center_axis',(0.707106781186547,0.707106781186548,0.));
#217=DIRECTION('ref_axis',(-0.707106781186548,0.707106781186547,0.));
#218=DIRECTION('center_axis',(0.5,0.866025403784439,0.));
#219=DIRECTION('ref_axis',(-0.866025403784439,0.5,0.));
#220=DIRECTION('center_axis',(0.258819045102521,0.965925826289068,0.));
#221=DIRECTION('ref_axis',(-0.965925826289068,0.258819045102521,0.));
#222=DIRECTION('center_axis',(0.258819045102521,0.965925826289068,0.));
#223=DIRECTION('ref_axis',(-0.965925826289068,0.258819045102521,0.));
#224=DIRECTION('',(0.5,0.866025403784439,0.));
#225=DIRECTION('center_axis',(0.258819045102521,0.965925826289068,0.));
#226=DIRECTION('ref_axis',(-0.965925826289068,0.258819045102521,0.));
#227=DIRECTION('center_axis',(4.92990852437351E-32,1.,0.));
#228=DIRECTION('ref_axis',(-1.,4.92990852437351E-32,0.));
#229=DIRECTION('center_axis',(0.,1.,0.));
#230=DIRECTION('ref_axis',(-1.,4.92990852437351E-32,0.));
#231=DIRECTION('',(4.92990852437351E-32,1.,0.));
#232=DIRECTION('center_axis',(0.866025403784439,0.5,0.));
#233=DIRECTION('ref_axis',(-0.5,0.866025403784439,0.));
#234=DIRECTION('center_axis',(0.866025403784439,0.5,0.));
#235=DIRECTION('ref_axis',(-0.5,0.866025403784439,0.));
#236=DIRECTION('',(-0.866025403784439,-0.5,0.));
#237=DIRECTION('center_axis',(-0.707106781186548,-0.707106781186547,0.));
#238=DIRECTION('ref_axis',(-0.707106781186547,0.707106781186548,0.));
#239=DIRECTION('center_axis',(-0.707106781186547,-0.707106781186548,0.));
#240=DIRECTION('ref_axis',(-0.707106781186548,0.707106781186547,0.));
#241=DIRECTION('center_axis',(-0.707106781186548,-0.707106781186547,0.));
#242=DIRECTION('ref_axis',(-0.707106781186547,0.707106781186548,0.));
#243=DIRECTION('center_axis',(0.866025403784439,0.5,0.));
#244=DIRECTION('ref_axis',(0.,0.,1.));
#245=DIRECTION('center_axis',(0.5,0.866025403784439,0.));
#246=DIRECTION('ref_axis',(-0.866025403784439,0.5,0.));
#247=DIRECTION('',(-0.5,-0.866025403784439,0.));
#248=DIRECTION('center_axis',(-0.25881904510252,-0.965925826289068,0.));
#249=DIRECTION('ref_axis',(-0.965925826289068,0.25881904510252,0.));
#250=DIRECTION('center_axis',(-0.258819045102521,-0.965925826289068,0.));
#251=DIRECTION('ref_axis',(-0.965925826289068,0.258819045102521,0.));
#252=DIRECTION('center_axis',(-0.25881904510252,-0.965925826289068,0.));
#253=DIRECTION('ref_axis',(-0.965925826289068,0.25881904510252,0.));
#254=DIRECTION('center_axis',(4.92990852437351E-32,1.,0.));
#255=DIRECTION('ref_axis',(-1.,4.92990852437351E-32,0.));
#256=DIRECTION('',(-4.92990852437351E-32,-1.,0.));
#257=DIRECTION('center_axis',(0.,1.,0.));
#258=DIRECTION('ref_axis',(-1.,0.,0.));
#259=DIRECTION('center_axis',(0.,1.,0.));
#260=DIRECTION('ref_axis',(0.,0.,1.));
#261=CARTESIAN_POINT('',(0.,0.,0.));
#262=CARTESIAN_POINT('Origin',(102.201997807902,519.221050646231,0.));
#263=CARTESIAN_POINT('',(102.201997807902,519.221050646231,128.9));
#264=CARTESIAN_POINT('',(102.201997807902,519.221050646231,-128.9));
#265=CARTESIAN_POINT('Origin',(102.201997807902,519.221050646231,0.));
#266=CARTESIAN_POINT('',(196.56334690353,424.859701550603,-1.57856972410094E-14));
#267=CARTESIAN_POINT('Origin',(102.201997807902,519.221050646231,0.));
#268=CARTESIAN_POINT('',(463.007621135332,578.691375002368,1.57856972410094E-14));
#269=CARTESIAN_POINT('',(166.651997807902,407.590376098417,-1.57856972410094E-14));
#270=CARTESIAN_POINT('Origin',(398.557621135332,690.322049550182,0.));
#271=CARTESIAN_POINT('Origin',(102.201997807902,519.221050646231,0.));
#272=CARTESIAN_POINT('Origin',(1.68702454605082E-29,342.201997807902,0.));
#273=CARTESIAN_POINT('',(0.,342.201997807902,128.9));
#274=CARTESIAN_POINT('',(0.,342.201997807902,-128.9));
#275=CARTESIAN_POINT('Origin',(1.46100611368792E-29,342.201997807902,0.));
#276=CARTESIAN_POINT('',(128.9,307.66334690353,-1.57856972410094E-14));
#277=CARTESIAN_POINT('Origin',(1.46100611368792E-29,342.201997807902,0.));
#278=CARTESIAN_POINT('',(111.630674547814,277.751997807902,-1.57856972410094E-14));
#279=CARTESIAN_POINT('Origin',(1.46100611368792E-29,342.201997807902,0.));
#280=CARTESIAN_POINT('Origin',(0.,0.,0.));
#281=CARTESIAN_POINT('',(128.9,-6.35465208791745E-30,1.57856972410094E-14));
#282=CARTESIAN_POINT('Origin',(0.,0.,0.));
#283=CARTESIAN_POINT('',(128.9,-6.35465208791745E-30,-1.57856972410094E-14));
#284=CARTESIAN_POINT('Origin',(102.201997807902,519.221050646231,0.));
#285=CARTESIAN_POINT('',(477.307621135332,553.923048454133,-1.92881870865708E-14));
#286=CARTESIAN_POINT('Origin',(398.557621135332,690.322049550182,0.));
#287=CARTESIAN_POINT('',(217.5,403.923048454133,-1.92881870865708E-14));
#288=CARTESIAN_POINT('',(180.951997807902,382.822049550182,-1.92881870865708E-14));
#289=CARTESIAN_POINT('',(102.201997807902,519.221050646231,-157.5));
#290=CARTESIAN_POINT('Origin',(102.201997807902,519.221050646231,0.));
#291=CARTESIAN_POINT('',(102.201997807902,519.221050646231,157.5));
#292=CARTESIAN_POINT('Origin',(102.201997807902,519.221050646231,0.));
#293=CARTESIAN_POINT('Origin',(102.201997807902,519.221050646231,0.));
#294=CARTESIAN_POINT('Origin',(398.557621135332,690.322049550182,0.));
#295=CARTESIAN_POINT('Origin',(1.68702454605082E-29,342.201997807902,0.));
#296=CARTESIAN_POINT('',(157.5,300.,-1.92881870865708E-14));
#297=CARTESIAN_POINT('',(136.399001096049,263.451997807902,-1.92881870865708E-14));
#298=CARTESIAN_POINT('',(1.68702454605082E-29,342.201997807902,-157.5));
#299=CARTESIAN_POINT('Origin',(1.46100611368792E-29,342.201997807902,0.));
#300=CARTESIAN_POINT('',(1.68702454605082E-29,342.201997807902,157.5));
#301=CARTESIAN_POINT('Origin',(-3.5527136788005E-14,342.201997807902,0.));
#302=CARTESIAN_POINT('Origin',(1.46100611368792E-29,342.201997807902,0.));
#303=CARTESIAN_POINT('Origin',(0.,0.,0.));
#304=CARTESIAN_POINT('',(157.5,-1.55292118517766E-29,-1.92881870865708E-14));
#305=CARTESIAN_POINT('',(157.5,-7.76460592588828E-30,-1.92881870865708E-14));
#306=CARTESIAN_POINT('Origin',(0.,0.,0.));
#307=CARTESIAN_POINT('Origin',(0.,0.,0.));
#308=UNCERTAINTY_MEASURE_WITH_UNIT(LENGTH_MEASURE(0.01),#312,
'DISTANCE_ACCURACY_VALUE',
'Maximum model space distance between geometric entities at asserted c
onnectivities');
#309=UNCERTAINTY_MEASURE_WITH_UNIT(LENGTH_MEASURE(0.01),#312,
'DISTANCE_ACCURACY_VALUE',
'Maximum model space distance between geometric entities at asserted c
onnectivities');
#310=(
GEOMETRIC_REPRESENTATION_CONTEXT(3)
GLOBAL_UNCERTAINTY_ASSIGNED_CONTEXT((#308))
GLOBAL_UNIT_ASSIGNED_CONTEXT((#312,#314,#315))
REPRESENTATION_CONTEXT('','3D')
);
#311=(
GEOMETRIC_REPRESENTATION_CONTEXT(3)
GLOBAL_UNCERTAINTY_ASSIGNED_CONTEXT((#309))
GLOBAL_UNIT_ASSIGNED_CONTEXT((#312,#314,#315))
REPRESENTATION_CONTEXT('','3D')
);
#312=(
LENGTH_UNIT()
NAMED_UNIT(*)
SI_UNIT(.MILLI.,.METRE.)
);
#313=(
LENGTH_UNIT()
NAMED_UNIT(*)
SI_UNIT(.CENTI.,.METRE.)
);
#314=(
NAMED_UNIT(*)
PLANE_ANGLE_UNIT()
SI_UNIT($,.RADIAN.)
);
#315=(
NAMED_UNIT(*)
SI_UNIT($,.STERADIAN.)
SOLID_ANGLE_UNIT()
);
#316=SHAPE_DEFINITION_REPRESENTATION(#317,#318);
#317=PRODUCT_DEFINITION_SHAPE('',$,#320);
#318=SHAPE_REPRESENTATION('',(#180),#310);
#319=PRODUCT_DEFINITION_CONTEXT('part definition',#324,'design');
#320=PRODUCT_DEFINITION('S-JEL11-315','S-JEL11-315',#321,#319);
#321=PRODUCT_DEFINITION_FORMATION('0',$,#326);
#322=PRODUCT_RELATED_PRODUCT_CATEGORY('S-JEL11-315','S-JEL11-315',(#326));
#323=APPLICATION_PROTOCOL_DEFINITION('international standard',
'automotive_design',2009,#324);
#324=APPLICATION_CONTEXT(
'Core Data for Automotive Mechanical Design Process');
#325=PRODUCT_CONTEXT('part definition',#324,'mechanical');
#326=PRODUCT('S-JEL11-315','S-JEL11-315',
'PE100 Segment Bend 60\X\B0, Curve Radius = 381, \X\D8315, SDR11 PN12,
8',(#325));
#327=PRESENTATION_STYLE_ASSIGNMENT((#328));
#328=SURFACE_STYLE_USAGE(.BOTH.,#331);
#329=SURFACE_STYLE_RENDERING_WITH_PROPERTIES($,#335,(#330));
#330=SURFACE_STYLE_TRANSPARENT(0.);
#331=SURFACE_SIDE_STYLE('',(#332,#329));
#332=SURFACE_STYLE_FILL_AREA(#333);
#333=FILL_AREA_STYLE('',(#334));
#334=FILL_AREA_STYLE_COLOUR('',#335);
#335=COLOUR_RGB('',0.109803921568627,0.109803921568627,0.129411764705882);
ENDSEC;
END-ISO-10303-21;
