ISO-10303-21;
HEADER;
/* Generated by software containing ST-Developer
 * from STEP Tools, Inc. (www.steptools.com) 
 */

FILE_DESCRIPTION(
/* description */ (
'PE100 Segment Bend 30°, Curve Radius = 532.5, Ø355, SDR11 PN12,8
'),
/* implementation_level */ '2;1');

FILE_NAME(
/* name */ 
'S-KDE11-355',
/* time_stamp */ '2022-10-10T17:24:34+02:00',
/* author */ ('COAB Solutions'),
/* organization */ ('GPA Flowsystem'),
/* preprocessor_version */ 'ST-DEVELOPER v18.1',
/* originating_system */ 'www.coabsolutions.com',
/* authorisation */ '');

FILE_SCHEMA (('AUTOMOTIVE_DESIGN { 1 0 10303 214 3 1 1 }'));
ENDSEC;

DATA;
#10=MECHANICAL_DESIGN_GEOMETRIC_PRESENTATION_REPRESENTATION('',(#13),#221);
#11=SHAPE_REPRESENTATION_RELATIONSHIP('SRR','None',#228,#12);
#12=ADVANCED_BREP_SHAPE_REPRESENTATION('',(#14),#220);
#13=STYLED_ITEM('',(#237),#14);
#14=MANIFOLD_SOLID_BREP('Solid1',#113);
#15=FACE_BOUND('',#29,.T.);
#16=FACE_BOUND('',#32,.T.);
#17=PLANE('',#145);
#18=PLANE('',#148);
#19=FACE_OUTER_BOUND('',#25,.T.);
#20=FACE_OUTER_BOUND('',#26,.T.);
#21=FACE_OUTER_BOUND('',#27,.T.);
#22=FACE_OUTER_BOUND('',#28,.T.);
#23=FACE_OUTER_BOUND('',#30,.T.);
#24=FACE_OUTER_BOUND('',#31,.T.);
#25=EDGE_LOOP('',(#75,#76,#77,#78,#79,#80));
#26=EDGE_LOOP('',(#81,#82,#83,#84,#85,#86));
#27=EDGE_LOOP('',(#87,#88,#89,#90,#91,#92));
#28=EDGE_LOOP('',(#93));
#29=EDGE_LOOP('',(#94));
#30=EDGE_LOOP('',(#95,#96,#97,#98,#99,#100));
#31=EDGE_LOOP('',(#101));
#32=EDGE_LOOP('',(#102));
#33=CIRCLE('',#136,145.3);
#34=CIRCLE('',#139,145.3);
#35=CIRCLE('',#141,177.5);
#36=CIRCLE('',#147,177.5);
#37=LINE('',#195,#41);
#38=LINE('',#201,#42);
#39=LINE('',#206,#43);
#40=LINE('',#215,#44);
#41=VECTOR('',#157,177.5);
#42=VECTOR('',#166,177.5);
#43=VECTOR('',#171,177.5);
#44=VECTOR('',#182,177.5);
#45=ELLIPSE('',#134,150.425629013585,145.3);
#46=ELLIPSE('',#135,150.425629013585,145.3);
#47=ELLIPSE('',#137,150.425629013585,145.3);
#48=ELLIPSE('',#142,183.76152202279,177.5);
#49=ELLIPSE('',#143,183.76152202279,177.5);
#50=ELLIPSE('',#144,183.76152202279,177.5);
#51=VERTEX_POINT('',#189);
#52=VERTEX_POINT('',#190);
#53=VERTEX_POINT('',#192);
#54=VERTEX_POINT('',#194);
#55=VERTEX_POINT('',#199);
#56=VERTEX_POINT('',#203);
#57=VERTEX_POINT('',#205);
#58=VERTEX_POINT('',#207);
#59=VERTEX_POINT('',#209);
#60=VERTEX_POINT('',#214);
#61=EDGE_CURVE('',#51,#52,#45,.F.);
#62=EDGE_CURVE('',#52,#53,#46,.F.);
#63=EDGE_CURVE('',#53,#54,#37,.T.);
#64=EDGE_CURVE('',#54,#54,#33,.T.);
#65=EDGE_CURVE('',#53,#51,#47,.F.);
#66=EDGE_CURVE('',#55,#55,#34,.T.);
#67=EDGE_CURVE('',#55,#53,#38,.T.);
#68=EDGE_CURVE('',#56,#56,#35,.T.);
#69=EDGE_CURVE('',#56,#57,#39,.T.);
#70=EDGE_CURVE('',#58,#57,#48,.T.);
#71=EDGE_CURVE('',#59,#58,#49,.T.);
#72=EDGE_CURVE('',#57,#59,#50,.T.);
#73=EDGE_CURVE('',#57,#60,#40,.T.);
#74=EDGE_CURVE('',#60,#60,#36,.T.);
#75=ORIENTED_EDGE('',*,*,#61,.T.);
#76=ORIENTED_EDGE('',*,*,#62,.T.);
#77=ORIENTED_EDGE('',*,*,#63,.T.);
#78=ORIENTED_EDGE('',*,*,#64,.F.);
#79=ORIENTED_EDGE('',*,*,#63,.F.);
#80=ORIENTED_EDGE('',*,*,#65,.T.);
#81=ORIENTED_EDGE('',*,*,#66,.F.);
#82=ORIENTED_EDGE('',*,*,#67,.T.);
#83=ORIENTED_EDGE('',*,*,#62,.F.);
#84=ORIENTED_EDGE('',*,*,#61,.F.);
#85=ORIENTED_EDGE('',*,*,#65,.F.);
#86=ORIENTED_EDGE('',*,*,#67,.F.);
#87=ORIENTED_EDGE('',*,*,#68,.F.);
#88=ORIENTED_EDGE('',*,*,#69,.T.);
#89=ORIENTED_EDGE('',*,*,#70,.F.);
#90=ORIENTED_EDGE('',*,*,#71,.F.);
#91=ORIENTED_EDGE('',*,*,#72,.F.);
#92=ORIENTED_EDGE('',*,*,#69,.F.);
#93=ORIENTED_EDGE('',*,*,#68,.T.);
#94=ORIENTED_EDGE('',*,*,#64,.T.);
#95=ORIENTED_EDGE('',*,*,#71,.T.);
#96=ORIENTED_EDGE('',*,*,#70,.T.);
#97=ORIENTED_EDGE('',*,*,#73,.T.);
#98=ORIENTED_EDGE('',*,*,#74,.T.);
#99=ORIENTED_EDGE('',*,*,#73,.F.);
#100=ORIENTED_EDGE('',*,*,#72,.T.);
#101=ORIENTED_EDGE('',*,*,#74,.F.);
#102=ORIENTED_EDGE('',*,*,#66,.T.);
#103=CYLINDRICAL_SURFACE('',#133,145.3);
#104=CYLINDRICAL_SURFACE('',#138,145.3);
#105=CYLINDRICAL_SURFACE('',#140,177.5);
#106=CYLINDRICAL_SURFACE('',#146,177.5);
#107=ADVANCED_FACE('',(#19),#103,.F.);
#108=ADVANCED_FACE('',(#20),#104,.F.);
#109=ADVANCED_FACE('',(#21),#105,.T.);
#110=ADVANCED_FACE('',(#22,#15),#17,.T.);
#111=ADVANCED_FACE('',(#23),#106,.T.);
#112=ADVANCED_FACE('',(#24,#16),#18,.F.);
#113=CLOSED_SHELL('',(#107,#108,#109,#110,#111,#112));
#114=DERIVED_UNIT_ELEMENT(#116,1.);
#115=DERIVED_UNIT_ELEMENT(#223,-3.);
#116=(
MASS_UNIT()
NAMED_UNIT(*)
SI_UNIT($,.GRAM.)
);
#117=DERIVED_UNIT((#114,#115));
#118=MEASURE_REPRESENTATION_ITEM('density measure',
POSITIVE_RATIO_MEASURE(1.),#117);
#119=PROPERTY_DEFINITION_REPRESENTATION(#124,#121);
#120=PROPERTY_DEFINITION_REPRESENTATION(#125,#122);
#121=REPRESENTATION('material name',(#123),#220);
#122=REPRESENTATION('density',(#118),#220);
#123=DESCRIPTIVE_REPRESENTATION_ITEM('PE','PE');
#124=PROPERTY_DEFINITION('material property','material name',#230);
#125=PROPERTY_DEFINITION('material property','density of part',#230);
#126=DATE_TIME_ROLE('creation_date');
#127=APPLIED_DATE_AND_TIME_ASSIGNMENT(#128,#126,(#230));
#128=DATE_AND_TIME(#129,#130);
#129=CALENDAR_DATE(2021,27,12);
#130=LOCAL_TIME(0,0,0.,#131);
#131=COORDINATED_UNIVERSAL_TIME_OFFSET(0,0,.BEHIND.);
#132=AXIS2_PLACEMENT_3D('placement',#187,#149,#150);
#133=AXIS2_PLACEMENT_3D('',#188,#151,#152);
#134=AXIS2_PLACEMENT_3D('',#191,#153,#154);
#135=AXIS2_PLACEMENT_3D('',#193,#155,#156);
#136=AXIS2_PLACEMENT_3D('',#196,#158,#159);
#137=AXIS2_PLACEMENT_3D('',#197,#160,#161);
#138=AXIS2_PLACEMENT_3D('',#198,#162,#163);
#139=AXIS2_PLACEMENT_3D('',#200,#164,#165);
#140=AXIS2_PLACEMENT_3D('',#202,#167,#168);
#141=AXIS2_PLACEMENT_3D('',#204,#169,#170);
#142=AXIS2_PLACEMENT_3D('',#208,#172,#173);
#143=AXIS2_PLACEMENT_3D('',#210,#174,#175);
#144=AXIS2_PLACEMENT_3D('',#211,#176,#177);
#145=AXIS2_PLACEMENT_3D('',#212,#178,#179);
#146=AXIS2_PLACEMENT_3D('',#213,#180,#181);
#147=AXIS2_PLACEMENT_3D('',#216,#183,#184);
#148=AXIS2_PLACEMENT_3D('',#217,#185,#186);
#149=DIRECTION('axis',(0.,0.,1.));
#150=DIRECTION('refdir',(1.,0.,0.));
#151=DIRECTION('center_axis',(0.5,0.866025403784439,0.));
#152=DIRECTION('ref_axis',(-0.866025403784439,0.5,0.));
#153=DIRECTION('center_axis',(0.25881904510252,0.965925826289068,0.));
#154=DIRECTION('ref_axis',(-0.965925826289068,0.25881904510252,0.));
#155=DIRECTION('center_axis',(0.25881904510252,0.965925826289068,0.));
#156=DIRECTION('ref_axis',(-0.965925826289068,0.25881904510252,0.));
#157=DIRECTION('',(0.5,0.866025403784439,0.));
#158=DIRECTION('center_axis',(-0.5,-0.866025403784439,0.));
#159=DIRECTION('ref_axis',(-0.866025403784439,0.5,0.));
#160=DIRECTION('center_axis',(0.25881904510252,0.965925826289068,0.));
#161=DIRECTION('ref_axis',(-0.965925826289068,0.25881904510252,0.));
#162=DIRECTION('center_axis',(1.20585372712012E-31,1.,0.));
#163=DIRECTION('ref_axis',(-1.,1.20585372712012E-31,0.));
#164=DIRECTION('center_axis',(0.,1.,0.));
#165=DIRECTION('ref_axis',(-1.,1.20585372712012E-31,0.));
#166=DIRECTION('',(1.20585372712012E-31,1.,0.));
#167=DIRECTION('center_axis',(0.5,0.866025403784439,0.));
#168=DIRECTION('ref_axis',(-0.866025403784439,0.5,0.));
#169=DIRECTION('center_axis',(0.5,0.866025403784439,0.));
#170=DIRECTION('ref_axis',(-0.866025403784439,0.5,0.));
#171=DIRECTION('',(-0.5,-0.866025403784439,0.));
#172=DIRECTION('center_axis',(-0.258819045102521,-0.965925826289068,0.));
#173=DIRECTION('ref_axis',(-0.965925826289068,0.258819045102521,0.));
#174=DIRECTION('center_axis',(-0.258819045102521,-0.965925826289068,0.));
#175=DIRECTION('ref_axis',(-0.965925826289068,0.258819045102521,0.));
#176=DIRECTION('center_axis',(-0.258819045102521,-0.965925826289068,0.));
#177=DIRECTION('ref_axis',(-0.965925826289068,0.258819045102521,0.));
#178=DIRECTION('center_axis',(0.5,0.866025403784439,0.));
#179=DIRECTION('ref_axis',(0.,0.,1.));
#180=DIRECTION('center_axis',(1.20585372712012E-31,1.,0.));
#181=DIRECTION('ref_axis',(-1.,1.20585372712012E-31,0.));
#182=DIRECTION('',(-1.20585372712012E-31,-1.,0.));
#183=DIRECTION('center_axis',(0.,1.,0.));
#184=DIRECTION('ref_axis',(-1.,0.,0.));
#185=DIRECTION('center_axis',(0.,1.,0.));
#186=DIRECTION('ref_axis',(0.,0.,1.));
#187=CARTESIAN_POINT('',(0.,0.,0.));
#188=CARTESIAN_POINT('Origin',(6.39102475373664E-29,530.,0.));
#189=CARTESIAN_POINT('',(0.,530.,145.3));
#190=CARTESIAN_POINT('',(0.,530.,-145.3));
#191=CARTESIAN_POINT('Origin',(5.53478979295112E-29,530.,0.));
#192=CARTESIAN_POINT('',(145.3,491.066982339758,-1.7794117991611E-14));
#193=CARTESIAN_POINT('Origin',(5.53478979295112E-29,530.,0.));
#194=CARTESIAN_POINT('',(390.833491169879,916.343464005753,1.7794117991611E-14));
#195=CARTESIAN_POINT('',(125.833491169879,457.35,-1.7794117991611E-14));
#196=CARTESIAN_POINT('Origin',(265.,988.993464005753,0.));
#197=CARTESIAN_POINT('Origin',(5.53478979295112E-29,530.,0.));
#198=CARTESIAN_POINT('Origin',(0.,0.,0.));
#199=CARTESIAN_POINT('',(145.3,-1.75210546550554E-29,1.7794117991611E-14));
#200=CARTESIAN_POINT('Origin',(0.,0.,0.));
#201=CARTESIAN_POINT('',(145.3,-1.75210546550554E-29,-1.7794117991611E-14));
#202=CARTESIAN_POINT('Origin',(6.39102475373664E-29,530.,0.));
#203=CARTESIAN_POINT('',(418.719509171738,900.243464005753,-2.17374806848655E-14));
#204=CARTESIAN_POINT('Origin',(265.,988.993464005753,0.));
#205=CARTESIAN_POINT('',(177.5,482.439018343476,-2.17374806848655E-14));
#206=CARTESIAN_POINT('',(153.719509171738,441.25,-2.17374806848655E-14));
#207=CARTESIAN_POINT('',(6.39102475373664E-29,530.,-177.5));
#208=CARTESIAN_POINT('Origin',(5.53478979295112E-29,530.,0.));
#209=CARTESIAN_POINT('',(6.39102475373664E-29,530.,177.5));
#210=CARTESIAN_POINT('Origin',(5.53478979295112E-29,530.,0.));
#211=CARTESIAN_POINT('Origin',(5.53478979295112E-29,530.,0.));
#212=CARTESIAN_POINT('Origin',(265.,988.993464005753,0.));
#213=CARTESIAN_POINT('Origin',(0.,0.,0.));
#214=CARTESIAN_POINT('',(177.5,-4.28078073127643E-29,-2.17374806848655E-14));
#215=CARTESIAN_POINT('',(177.5,-2.14039036563821E-29,-2.17374806848655E-14));
#216=CARTESIAN_POINT('Origin',(0.,0.,0.));
#217=CARTESIAN_POINT('Origin',(0.,0.,0.));
#218=UNCERTAINTY_MEASURE_WITH_UNIT(LENGTH_MEASURE(0.01),#222,
'DISTANCE_ACCURACY_VALUE',
'Maximum model space distance between geometric entities at asserted c
onnectivities');
#219=UNCERTAINTY_MEASURE_WITH_UNIT(LENGTH_MEASURE(0.01),#222,
'DISTANCE_ACCURACY_VALUE',
'Maximum model space distance between geometric entities at asserted c
onnectivities');
#220=(
GEOMETRIC_REPRESENTATION_CONTEXT(3)
GLOBAL_UNCERTAINTY_ASSIGNED_CONTEXT((#218))
GLOBAL_UNIT_ASSIGNED_CONTEXT((#222,#224,#225))
REPRESENTATION_CONTEXT('','3D')
);
#221=(
GEOMETRIC_REPRESENTATION_CONTEXT(3)
GLOBAL_UNCERTAINTY_ASSIGNED_CONTEXT((#219))
GLOBAL_UNIT_ASSIGNED_CONTEXT((#222,#224,#225))
REPRESENTATION_CONTEXT('','3D')
);
#222=(
LENGTH_UNIT()
NAMED_UNIT(*)
SI_UNIT(.MILLI.,.METRE.)
);
#223=(
LENGTH_UNIT()
NAMED_UNIT(*)
SI_UNIT(.CENTI.,.METRE.)
);
#224=(
NAMED_UNIT(*)
PLANE_ANGLE_UNIT()
SI_UNIT($,.RADIAN.)
);
#225=(
NAMED_UNIT(*)
SI_UNIT($,.STERADIAN.)
SOLID_ANGLE_UNIT()
);
#226=SHAPE_DEFINITION_REPRESENTATION(#227,#228);
#227=PRODUCT_DEFINITION_SHAPE('',$,#230);
#228=SHAPE_REPRESENTATION('',(#132),#220);
#229=PRODUCT_DEFINITION_CONTEXT('part definition',#234,'design');
#230=PRODUCT_DEFINITION('S-KDE11-355','S-KDE11-355',#231,#229);
#231=PRODUCT_DEFINITION_FORMATION('0',$,#236);
#232=PRODUCT_RELATED_PRODUCT_CATEGORY('S-KDE11-355','S-KDE11-355',(#236));
#233=APPLICATION_PROTOCOL_DEFINITION('international standard',
'automotive_design',2009,#234);
#234=APPLICATION_CONTEXT(
'Core Data for Automotive Mechanical Design Process');
#235=PRODUCT_CONTEXT('part definition',#234,'mechanical');
#236=PRODUCT('S-KDE11-355','S-KDE11-355',
'PE100 Segment Bend 30\X\B0, Curve Radius = 532.5, \X\D8355, SDR11 PN1
2,8',(#235));
#237=PRESENTATION_STYLE_ASSIGNMENT((#238));
#238=SURFACE_STYLE_USAGE(.BOTH.,#241);
#239=SURFACE_STYLE_RENDERING_WITH_PROPERTIES($,#245,(#240));
#240=SURFACE_STYLE_TRANSPARENT(0.);
#241=SURFACE_SIDE_STYLE('',(#242,#239));
#242=SURFACE_STYLE_FILL_AREA(#243);
#243=FILL_AREA_STYLE('',(#244));
#244=FILL_AREA_STYLE_COLOUR('',#245);
#245=COLOUR_RGB('',0.109803921568627,0.109803921568627,0.129411764705882);
ENDSEC;
END-ISO-10303-21;
