ISO-10303-21;
HEADER;
/* Generated by software containing ST-Developer
 * from STEP Tools, Inc. (www.steptools.com) 
 */

FILE_DESCRIPTION(
/* description */ ('PE100 Segment Tee, Ø280, SDR11 PN6
'),
/* implementation_level */ '2;1');

FILE_NAME(
/* name */ 
'S-TEL11-280',
/* time_stamp */ '2022-10-10T17:27:08+02:00',
/* author */ ('COAB Solutions'),
/* organization */ ('GPA Flowsystem'),
/* preprocessor_version */ 'ST-DEVELOPER v18.1',
/* originating_system */ 'www.coabsolutions.com',
/* authorisation */ '');

FILE_SCHEMA (('AUTOMOTIVE_DESIGN { 1 0 10303 214 3 1 1 }'));
ENDSEC;

DATA;
#10=MECHANICAL_DESIGN_GEOMETRIC_PRESENTATION_REPRESENTATION('',(#13),#285);
#11=SHAPE_REPRESENTATION_RELATIONSHIP('SRR','None',#292,#12);
#12=ADVANCED_BREP_SHAPE_REPRESENTATION('',(#14),#284);
#13=STYLED_ITEM('',(#301),#14);
#14=MANIFOLD_SOLID_BREP('Solid2',#149);
#15=FACE_BOUND('',#31,.T.);
#16=FACE_BOUND('',#34,.T.);
#17=FACE_BOUND('',#37,.T.);
#18=PLANE('',#181);
#19=PLANE('',#185);
#20=PLANE('',#189);
#21=FACE_OUTER_BOUND('',#28,.T.);
#22=FACE_OUTER_BOUND('',#29,.T.);
#23=FACE_OUTER_BOUND('',#30,.T.);
#24=FACE_OUTER_BOUND('',#32,.T.);
#25=FACE_OUTER_BOUND('',#33,.T.);
#26=FACE_OUTER_BOUND('',#35,.T.);
#27=FACE_OUTER_BOUND('',#36,.T.);
#28=EDGE_LOOP('',(#98,#99,#100,#101,#102,#103,#104));
#29=EDGE_LOOP('',(#105,#106,#107,#108,#109,#110,#111));
#30=EDGE_LOOP('',(#112));
#31=EDGE_LOOP('',(#113));
#32=EDGE_LOOP('',(#114,#115,#116,#117,#118,#119,#120,#121,#122,#123));
#33=EDGE_LOOP('',(#124));
#34=EDGE_LOOP('',(#125));
#35=EDGE_LOOP('',(#126,#127,#128,#129,#130,#131,#132,#133,#134,#135));
#36=EDGE_LOOP('',(#136));
#37=EDGE_LOOP('',(#137));
#38=CIRCLE('',#172,114.6);
#39=CIRCLE('',#180,140.);
#40=CIRCLE('',#183,114.6);
#41=CIRCLE('',#184,114.6);
#42=CIRCLE('',#186,140.);
#43=CIRCLE('',#188,140.);
#44=LINE('',#248,#50);
#45=LINE('',#263,#51);
#46=LINE('',#269,#52);
#47=LINE('',#271,#53);
#48=LINE('',#279,#54);
#49=LINE('',#280,#55);
#50=VECTOR('',#198,114.6);
#51=VECTOR('',#215,140.);
#52=VECTOR('',#224,114.6);
#53=VECTOR('',#225,114.6);
#54=VECTOR('',#236,140.);
#55=VECTOR('',#237,140.);
#56=ELLIPSE('',#170,162.068874247957,114.6);
#57=ELLIPSE('',#171,162.068874247957,114.6);
#58=ELLIPSE('',#173,162.068874247957,114.6);
#59=ELLIPSE('',#174,162.068874247957,114.6);
#60=ELLIPSE('',#176,197.989898732233,140.);
#61=ELLIPSE('',#177,197.989898732233,140.);
#62=ELLIPSE('',#178,197.989898732233,140.);
#63=ELLIPSE('',#179,197.989898732233,140.);
#64=VERTEX_POINT('',#242);
#65=VERTEX_POINT('',#243);
#66=VERTEX_POINT('',#245);
#67=VERTEX_POINT('',#247);
#68=VERTEX_POINT('',#250);
#69=VERTEX_POINT('',#254);
#70=VERTEX_POINT('',#255);
#71=VERTEX_POINT('',#257);
#72=VERTEX_POINT('',#259);
#73=VERTEX_POINT('',#262);
#74=VERTEX_POINT('',#267);
#75=VERTEX_POINT('',#270);
#76=VERTEX_POINT('',#274);
#77=VERTEX_POINT('',#277);
#78=EDGE_CURVE('',#64,#65,#56,.T.);
#79=EDGE_CURVE('',#66,#64,#57,.T.);
#80=EDGE_CURVE('',#66,#67,#44,.T.);
#81=EDGE_CURVE('',#67,#67,#38,.T.);
#82=EDGE_CURVE('',#68,#66,#58,.T.);
#83=EDGE_CURVE('',#65,#68,#59,.T.);
#84=EDGE_CURVE('',#69,#70,#60,.T.);
#85=EDGE_CURVE('',#71,#69,#61,.T.);
#86=EDGE_CURVE('',#72,#71,#62,.T.);
#87=EDGE_CURVE('',#70,#72,#63,.T.);
#88=EDGE_CURVE('',#70,#73,#45,.T.);
#89=EDGE_CURVE('',#73,#73,#39,.T.);
#90=EDGE_CURVE('',#74,#74,#40,.T.);
#91=EDGE_CURVE('',#74,#66,#46,.T.);
#92=EDGE_CURVE('',#65,#75,#47,.T.);
#93=EDGE_CURVE('',#75,#75,#41,.T.);
#94=EDGE_CURVE('',#76,#76,#42,.T.);
#95=EDGE_CURVE('',#77,#77,#43,.T.);
#96=EDGE_CURVE('',#77,#70,#48,.T.);
#97=EDGE_CURVE('',#71,#76,#49,.T.);
#98=ORIENTED_EDGE('',*,*,#78,.F.);
#99=ORIENTED_EDGE('',*,*,#79,.F.);
#100=ORIENTED_EDGE('',*,*,#80,.T.);
#101=ORIENTED_EDGE('',*,*,#81,.F.);
#102=ORIENTED_EDGE('',*,*,#80,.F.);
#103=ORIENTED_EDGE('',*,*,#82,.F.);
#104=ORIENTED_EDGE('',*,*,#83,.F.);
#105=ORIENTED_EDGE('',*,*,#84,.F.);
#106=ORIENTED_EDGE('',*,*,#85,.F.);
#107=ORIENTED_EDGE('',*,*,#86,.F.);
#108=ORIENTED_EDGE('',*,*,#87,.F.);
#109=ORIENTED_EDGE('',*,*,#88,.T.);
#110=ORIENTED_EDGE('',*,*,#89,.T.);
#111=ORIENTED_EDGE('',*,*,#88,.F.);
#112=ORIENTED_EDGE('',*,*,#89,.F.);
#113=ORIENTED_EDGE('',*,*,#81,.T.);
#114=ORIENTED_EDGE('',*,*,#90,.T.);
#115=ORIENTED_EDGE('',*,*,#91,.T.);
#116=ORIENTED_EDGE('',*,*,#79,.T.);
#117=ORIENTED_EDGE('',*,*,#78,.T.);
#118=ORIENTED_EDGE('',*,*,#92,.T.);
#119=ORIENTED_EDGE('',*,*,#93,.F.);
#120=ORIENTED_EDGE('',*,*,#92,.F.);
#121=ORIENTED_EDGE('',*,*,#83,.T.);
#122=ORIENTED_EDGE('',*,*,#82,.T.);
#123=ORIENTED_EDGE('',*,*,#91,.F.);
#124=ORIENTED_EDGE('',*,*,#94,.F.);
#125=ORIENTED_EDGE('',*,*,#93,.T.);
#126=ORIENTED_EDGE('',*,*,#95,.F.);
#127=ORIENTED_EDGE('',*,*,#96,.T.);
#128=ORIENTED_EDGE('',*,*,#87,.T.);
#129=ORIENTED_EDGE('',*,*,#86,.T.);
#130=ORIENTED_EDGE('',*,*,#97,.T.);
#131=ORIENTED_EDGE('',*,*,#94,.T.);
#132=ORIENTED_EDGE('',*,*,#97,.F.);
#133=ORIENTED_EDGE('',*,*,#85,.T.);
#134=ORIENTED_EDGE('',*,*,#84,.T.);
#135=ORIENTED_EDGE('',*,*,#96,.F.);
#136=ORIENTED_EDGE('',*,*,#95,.T.);
#137=ORIENTED_EDGE('',*,*,#90,.F.);
#138=CYLINDRICAL_SURFACE('',#169,114.6);
#139=CYLINDRICAL_SURFACE('',#175,140.);
#140=CYLINDRICAL_SURFACE('',#182,114.6);
#141=CYLINDRICAL_SURFACE('',#187,140.);
#142=ADVANCED_FACE('',(#21),#138,.F.);
#143=ADVANCED_FACE('',(#22),#139,.T.);
#144=ADVANCED_FACE('',(#23,#15),#18,.T.);
#145=ADVANCED_FACE('',(#24),#140,.F.);
#146=ADVANCED_FACE('',(#25,#16),#19,.T.);
#147=ADVANCED_FACE('',(#26),#141,.T.);
#148=ADVANCED_FACE('',(#27,#17),#20,.T.);
#149=CLOSED_SHELL('',(#142,#143,#144,#145,#146,#147,#148));
#150=DERIVED_UNIT_ELEMENT(#152,1.);
#151=DERIVED_UNIT_ELEMENT(#287,-3.);
#152=(
MASS_UNIT()
NAMED_UNIT(*)
SI_UNIT($,.GRAM.)
);
#153=DERIVED_UNIT((#150,#151));
#154=MEASURE_REPRESENTATION_ITEM('density measure',
POSITIVE_RATIO_MEASURE(1.),#153);
#155=PROPERTY_DEFINITION_REPRESENTATION(#160,#157);
#156=PROPERTY_DEFINITION_REPRESENTATION(#161,#158);
#157=REPRESENTATION('material name',(#159),#284);
#158=REPRESENTATION('density',(#154),#284);
#159=DESCRIPTIVE_REPRESENTATION_ITEM('PE','PE');
#160=PROPERTY_DEFINITION('material property','material name',#294);
#161=PROPERTY_DEFINITION('material property','density of part',#294);
#162=DATE_TIME_ROLE('creation_date');
#163=APPLIED_DATE_AND_TIME_ASSIGNMENT(#164,#162,(#294));
#164=DATE_AND_TIME(#165,#166);
#165=CALENDAR_DATE(2021,19,10);
#166=LOCAL_TIME(0,0,0.,#167);
#167=COORDINATED_UNIVERSAL_TIME_OFFSET(0,0,.BEHIND.);
#168=AXIS2_PLACEMENT_3D('placement',#240,#190,#191);
#169=AXIS2_PLACEMENT_3D('',#241,#192,#193);
#170=AXIS2_PLACEMENT_3D('',#244,#194,#195);
#171=AXIS2_PLACEMENT_3D('',#246,#196,#197);
#172=AXIS2_PLACEMENT_3D('',#249,#199,#200);
#173=AXIS2_PLACEMENT_3D('',#251,#201,#202);
#174=AXIS2_PLACEMENT_3D('',#252,#203,#204);
#175=AXIS2_PLACEMENT_3D('',#253,#205,#206);
#176=AXIS2_PLACEMENT_3D('',#256,#207,#208);
#177=AXIS2_PLACEMENT_3D('',#258,#209,#210);
#178=AXIS2_PLACEMENT_3D('',#260,#211,#212);
#179=AXIS2_PLACEMENT_3D('',#261,#213,#214);
#180=AXIS2_PLACEMENT_3D('',#264,#216,#217);
#181=AXIS2_PLACEMENT_3D('',#265,#218,#219);
#182=AXIS2_PLACEMENT_3D('',#266,#220,#221);
#183=AXIS2_PLACEMENT_3D('',#268,#222,#223);
#184=AXIS2_PLACEMENT_3D('',#272,#226,#227);
#185=AXIS2_PLACEMENT_3D('',#273,#228,#229);
#186=AXIS2_PLACEMENT_3D('',#275,#230,#231);
#187=AXIS2_PLACEMENT_3D('',#276,#232,#233);
#188=AXIS2_PLACEMENT_3D('',#278,#234,#235);
#189=AXIS2_PLACEMENT_3D('',#281,#238,#239);
#190=DIRECTION('axis',(0.,0.,1.));
#191=DIRECTION('refdir',(1.,0.,0.));
#192=DIRECTION('center_axis',(1.22464679914735E-16,0.,1.));
#193=DIRECTION('ref_axis',(1.,0.,0.));
#194=DIRECTION('center_axis',(-0.707106781186548,0.,-0.707106781186548));
#195=DIRECTION('ref_axis',(-0.707106781186548,0.,0.707106781186548));
#196=DIRECTION('center_axis',(0.707106781186548,0.,-0.707106781186548));
#197=DIRECTION('ref_axis',(-0.707106781186547,0.,-0.707106781186548));
#198=DIRECTION('',(-1.22464679914735E-16,0.,-1.));
#199=DIRECTION('center_axis',(1.22464679914735E-16,0.,1.));
#200=DIRECTION('ref_axis',(1.,0.,-1.22464679914735E-16));
#201=DIRECTION('center_axis',(0.707106781186548,0.,-0.707106781186548));
#202=DIRECTION('ref_axis',(-0.707106781186547,0.,-0.707106781186548));
#203=DIRECTION('center_axis',(-0.707106781186548,0.,-0.707106781186548));
#204=DIRECTION('ref_axis',(-0.707106781186548,0.,0.707106781186548));
#205=DIRECTION('center_axis',(1.22464679914735E-16,0.,1.));
#206=DIRECTION('ref_axis',(1.,0.,0.));
#207=DIRECTION('center_axis',(-0.707106781186547,0.,0.707106781186548));
#208=DIRECTION('ref_axis',(0.707106781186548,0.,0.707106781186547));
#209=DIRECTION('center_axis',(0.707106781186548,0.,0.707106781186547));
#210=DIRECTION('ref_axis',(0.707106781186548,0.,-0.707106781186548));
#211=DIRECTION('center_axis',(0.707106781186548,0.,0.707106781186547));
#212=DIRECTION('ref_axis',(0.707106781186548,0.,-0.707106781186548));
#213=DIRECTION('center_axis',(-0.707106781186547,0.,0.707106781186548));
#214=DIRECTION('ref_axis',(0.707106781186548,0.,0.707106781186547));
#215=DIRECTION('',(-1.22464679914735E-16,0.,-1.));
#216=DIRECTION('center_axis',(1.22464679914735E-16,0.,1.));
#217=DIRECTION('ref_axis',(1.,0.,-1.22464679914735E-16));
#218=DIRECTION('center_axis',(-1.22464679914735E-16,0.,-1.));
#219=DIRECTION('ref_axis',(-1.,0.,1.22464679914735E-16));
#220=DIRECTION('center_axis',(-1.,0.,7.34706413354883E-18));
#221=DIRECTION('ref_axis',(7.34706413354883E-18,0.,1.));
#222=DIRECTION('center_axis',(-1.,0.,7.34706413354883E-18));
#223=DIRECTION('ref_axis',(7.34706413354883E-18,0.,1.));
#224=DIRECTION('',(1.,0.,-7.34706413354883E-18));
#225=DIRECTION('',(1.,0.,-7.34706413354883E-18));
#226=DIRECTION('center_axis',(-1.,0.,7.34706413354883E-18));
#227=DIRECTION('ref_axis',(7.34706413354883E-18,0.,1.));
#228=DIRECTION('center_axis',(1.,0.,-7.34706413354883E-18));
#229=DIRECTION('ref_axis',(-7.34706413354883E-18,0.,-1.));
#230=DIRECTION('center_axis',(-1.,0.,7.34706413354883E-18));
#231=DIRECTION('ref_axis',(7.34706413354883E-18,0.,1.));
#232=DIRECTION('center_axis',(-1.,0.,7.34706413354883E-18));
#233=DIRECTION('ref_axis',(7.34706413354883E-18,0.,1.));
#234=DIRECTION('center_axis',(-1.,0.,7.34706413354883E-18));
#235=DIRECTION('ref_axis',(7.34706413354883E-18,0.,1.));
#236=DIRECTION('',(1.,0.,-7.34706413354883E-18));
#237=DIRECTION('',(1.,0.,-7.34706413354883E-18));
#238=DIRECTION('center_axis',(-1.,0.,7.34706413354883E-18));
#239=DIRECTION('ref_axis',(7.34706413354883E-18,0.,1.));
#240=CARTESIAN_POINT('',(0.,0.,0.));
#241=CARTESIAN_POINT('Origin',(-2.0818995585505E-14,0.,-170.));
#242=CARTESIAN_POINT('',(2.64719180274605E-15,114.6,0.));
#243=CARTESIAN_POINT('',(114.6,-1.40344523182287E-14,-114.6));
#244=CARTESIAN_POINT('Origin',(2.64719180274605E-15,0.,0.));
#245=CARTESIAN_POINT('',(-114.6,-1.40344523182287E-14,-114.6));
#246=CARTESIAN_POINT('Origin',(2.64719180274605E-15,0.,0.));
#247=CARTESIAN_POINT('',(-114.6,0.,-340.));
#248=CARTESIAN_POINT('',(-114.6,-1.40344523182287E-14,-170.));
#249=CARTESIAN_POINT('Origin',(-4.163799117101E-14,0.,-340.));
#250=CARTESIAN_POINT('',(2.64719180274605E-15,-114.6,0.));
#251=CARTESIAN_POINT('Origin',(2.64719180274605E-15,0.,0.));
#252=CARTESIAN_POINT('Origin',(2.64719180274605E-15,0.,0.));
#253=CARTESIAN_POINT('Origin',(-2.0818995585505E-14,0.,-170.));
#254=CARTESIAN_POINT('',(-3.19515568950563E-32,140.,3.91293718793053E-48));
#255=CARTESIAN_POINT('',(-140.,-1.71450551880629E-14,-140.));
#256=CARTESIAN_POINT('Origin',(0.,0.,0.));
#257=CARTESIAN_POINT('',(140.,-1.71450551880629E-14,-140.));
#258=CARTESIAN_POINT('Origin',(0.,0.,0.));
#259=CARTESIAN_POINT('',(-3.19515568950563E-32,-140.,3.91293718793053E-48));
#260=CARTESIAN_POINT('Origin',(0.,0.,0.));
#261=CARTESIAN_POINT('Origin',(0.,0.,0.));
#262=CARTESIAN_POINT('',(-140.,-1.71450551880629E-14,-340.));
#263=CARTESIAN_POINT('',(-140.,-1.71450551880629E-14,-170.));
#264=CARTESIAN_POINT('Origin',(-4.163799117101E-14,0.,-340.));
#265=CARTESIAN_POINT('Origin',(140.,0.,-340.));
#266=CARTESIAN_POINT('Origin',(0.,0.,-2.77555756156289E-16));
#267=CARTESIAN_POINT('',(-340.,-1.40344523182287E-14,-114.6));
#268=CARTESIAN_POINT('Origin',(-340.,0.,2.22044604925031E-15));
#269=CARTESIAN_POINT('',(-8.41973549704696E-16,-1.40344523182287E-14,-114.6));
#270=CARTESIAN_POINT('',(340.,0.,-114.6));
#271=CARTESIAN_POINT('',(-8.41973549704696E-16,-1.40344523182287E-14,-114.6));
#272=CARTESIAN_POINT('Origin',(340.,0.,-2.77555756156289E-15));
#273=CARTESIAN_POINT('Origin',(340.,0.,140.));
#274=CARTESIAN_POINT('',(340.,-1.71450551880629E-14,-140.));
#275=CARTESIAN_POINT('Origin',(340.,0.,-2.77555756156289E-15));
#276=CARTESIAN_POINT('Origin',(0.,0.,-2.77555756156289E-16));
#277=CARTESIAN_POINT('',(-340.,-1.71450551880629E-14,-140.));
#278=CARTESIAN_POINT('Origin',(-340.,0.,2.22044604925031E-15));
#279=CARTESIAN_POINT('',(-1.02858897869684E-15,-1.71450551880629E-14,-140.));
#280=CARTESIAN_POINT('',(-1.02858897869684E-15,-1.71450551880629E-14,-140.));
#281=CARTESIAN_POINT('Origin',(-340.,0.,114.6));
#282=UNCERTAINTY_MEASURE_WITH_UNIT(LENGTH_MEASURE(0.01),#286,
'DISTANCE_ACCURACY_VALUE',
'Maximum model space distance between geometric entities at asserted c
onnectivities');
#283=UNCERTAINTY_MEASURE_WITH_UNIT(LENGTH_MEASURE(0.01),#286,
'DISTANCE_ACCURACY_VALUE',
'Maximum model space distance between geometric entities at asserted c
onnectivities');
#284=(
GEOMETRIC_REPRESENTATION_CONTEXT(3)
GLOBAL_UNCERTAINTY_ASSIGNED_CONTEXT((#282))
GLOBAL_UNIT_ASSIGNED_CONTEXT((#286,#288,#289))
REPRESENTATION_CONTEXT('','3D')
);
#285=(
GEOMETRIC_REPRESENTATION_CONTEXT(3)
GLOBAL_UNCERTAINTY_ASSIGNED_CONTEXT((#283))
GLOBAL_UNIT_ASSIGNED_CONTEXT((#286,#288,#289))
REPRESENTATION_CONTEXT('','3D')
);
#286=(
LENGTH_UNIT()
NAMED_UNIT(*)
SI_UNIT(.MILLI.,.METRE.)
);
#287=(
LENGTH_UNIT()
NAMED_UNIT(*)
SI_UNIT(.CENTI.,.METRE.)
);
#288=(
NAMED_UNIT(*)
PLANE_ANGLE_UNIT()
SI_UNIT($,.RADIAN.)
);
#289=(
NAMED_UNIT(*)
SI_UNIT($,.STERADIAN.)
SOLID_ANGLE_UNIT()
);
#290=SHAPE_DEFINITION_REPRESENTATION(#291,#292);
#291=PRODUCT_DEFINITION_SHAPE('',$,#294);
#292=SHAPE_REPRESENTATION('',(#168),#284);
#293=PRODUCT_DEFINITION_CONTEXT('part definition',#298,'design');
#294=PRODUCT_DEFINITION('S-TEL11-280','S-TEL11-280',#295,#293);
#295=PRODUCT_DEFINITION_FORMATION('0',$,#300);
#296=PRODUCT_RELATED_PRODUCT_CATEGORY('S-TEL11-280','S-TEL11-280',(#300));
#297=APPLICATION_PROTOCOL_DEFINITION('international standard',
'automotive_design',2009,#298);
#298=APPLICATION_CONTEXT(
'Core Data for Automotive Mechanical Design Process');
#299=PRODUCT_CONTEXT('part definition',#298,'mechanical');
#300=PRODUCT('S-TEL11-280','S-TEL11-280',
'PE100 Segment Tee, \X\D8280, SDR11 PN6',(#299));
#301=PRESENTATION_STYLE_ASSIGNMENT((#302));
#302=SURFACE_STYLE_USAGE(.BOTH.,#305);
#303=SURFACE_STYLE_RENDERING_WITH_PROPERTIES($,#309,(#304));
#304=SURFACE_STYLE_TRANSPARENT(0.);
#305=SURFACE_SIDE_STYLE('',(#306,#303));
#306=SURFACE_STYLE_FILL_AREA(#307);
#307=FILL_AREA_STYLE('',(#308));
#308=FILL_AREA_STYLE_COLOUR('',#309);
#309=COLOUR_RGB('',0.109803921568627,0.109803921568627,0.129411764705882);
ENDSEC;
END-ISO-10303-21;
