ISO-10303-21;
HEADER;
/* Generated by software containing ST-Developer
 * from STEP Tools, Inc. (www.steptools.com) 
 */

FILE_DESCRIPTION(
/* description */ ('PE100 Segment Wye, Ø250, SDR11 PN6 (Factor 0,5)
'),

/* implementation_level */ '2;1');

FILE_NAME(
/* name */ 
'S-YDE11-250',
/* time_stamp */ '2022-10-10T17:27:08+02:00',
/* author */ ('COAB Solutions'),
/* organization */ ('GPA Flowsystem'),
/* preprocessor_version */ 'ST-DEVELOPER v18.1',
/* originating_system */ 'www.coabsolutions.com',
/* authorisation */ '');

FILE_SCHEMA (('AUTOMOTIVE_DESIGN { 1 0 10303 214 3 1 1 }'));
ENDSEC;

DATA;
#10=MECHANICAL_DESIGN_GEOMETRIC_PRESENTATION_REPRESENTATION('',(#13),#285);
#11=SHAPE_REPRESENTATION_RELATIONSHIP('SRR','None',#292,#12);
#12=ADVANCED_BREP_SHAPE_REPRESENTATION('',(#14),#284);
#13=STYLED_ITEM('',(#301),#14);
#14=MANIFOLD_SOLID_BREP('Solid2',#149);
#15=FACE_BOUND('',#30,.T.);
#16=FACE_BOUND('',#34,.T.);
#17=FACE_BOUND('',#37,.T.);
#18=PLANE('',#175);
#19=PLANE('',#185);
#20=PLANE('',#189);
#21=FACE_OUTER_BOUND('',#28,.T.);
#22=FACE_OUTER_BOUND('',#29,.T.);
#23=FACE_OUTER_BOUND('',#31,.T.);
#24=FACE_OUTER_BOUND('',#32,.T.);
#25=FACE_OUTER_BOUND('',#33,.T.);
#26=FACE_OUTER_BOUND('',#35,.T.);
#27=FACE_OUTER_BOUND('',#36,.T.);
#28=EDGE_LOOP('',(#98,#99,#100,#101,#102,#103,#104));
#29=EDGE_LOOP('',(#105));
#30=EDGE_LOOP('',(#106));
#31=EDGE_LOOP('',(#107,#108,#109,#110,#111,#112,#113));
#32=EDGE_LOOP('',(#114,#115,#116,#117,#118,#119,#120,#121,#122,#123));
#33=EDGE_LOOP('',(#124));
#34=EDGE_LOOP('',(#125));
#35=EDGE_LOOP('',(#126,#127,#128,#129,#130,#131,#132,#133,#134,#135));
#36=EDGE_LOOP('',(#136));
#37=EDGE_LOOP('',(#137));
#38=CIRCLE('',#172,102.3);
#39=CIRCLE('',#176,125.);
#40=CIRCLE('',#183,102.3);
#41=CIRCLE('',#184,102.3);
#42=CIRCLE('',#186,125.);
#43=CIRCLE('',#188,125.);
#44=LINE('',#248,#50);
#45=LINE('',#265,#51);
#46=LINE('',#269,#52);
#47=LINE('',#271,#53);
#48=LINE('',#279,#54);
#49=LINE('',#280,#55);
#50=VECTOR('',#198,102.3);
#51=VECTOR('',#219,125.);
#52=VECTOR('',#224,102.3);
#53=VECTOR('',#225,102.3);
#54=VECTOR('',#236,125.);
#55=VECTOR('',#237,125.);
#56=ELLIPSE('',#170,110.728722089912,102.3);
#57=ELLIPSE('',#171,267.322782613707,102.3);
#58=ELLIPSE('',#173,267.322782613707,102.3);
#59=ELLIPSE('',#174,110.728722089912,102.3);
#60=ELLIPSE('',#178,326.640741219094,125.);
#61=ELLIPSE('',#179,135.299025036549,125.);
#62=ELLIPSE('',#180,135.299025036549,125.);
#63=ELLIPSE('',#181,326.640741219094,125.);
#64=VERTEX_POINT('',#242);
#65=VERTEX_POINT('',#243);
#66=VERTEX_POINT('',#245);
#67=VERTEX_POINT('',#247);
#68=VERTEX_POINT('',#250);
#69=VERTEX_POINT('',#254);
#70=VERTEX_POINT('',#257);
#71=VERTEX_POINT('',#258);
#72=VERTEX_POINT('',#260);
#73=VERTEX_POINT('',#262);
#74=VERTEX_POINT('',#267);
#75=VERTEX_POINT('',#270);
#76=VERTEX_POINT('',#274);
#77=VERTEX_POINT('',#277);
#78=EDGE_CURVE('',#64,#65,#56,.T.);
#79=EDGE_CURVE('',#66,#64,#57,.T.);
#80=EDGE_CURVE('',#66,#67,#44,.T.);
#81=EDGE_CURVE('',#67,#67,#38,.T.);
#82=EDGE_CURVE('',#68,#66,#58,.T.);
#83=EDGE_CURVE('',#65,#68,#59,.T.);
#84=EDGE_CURVE('',#69,#69,#39,.T.);
#85=EDGE_CURVE('',#70,#71,#60,.T.);
#86=EDGE_CURVE('',#72,#70,#61,.T.);
#87=EDGE_CURVE('',#73,#72,#62,.T.);
#88=EDGE_CURVE('',#71,#73,#63,.T.);
#89=EDGE_CURVE('',#71,#69,#45,.T.);
#90=EDGE_CURVE('',#74,#74,#40,.T.);
#91=EDGE_CURVE('',#74,#66,#46,.T.);
#92=EDGE_CURVE('',#65,#75,#47,.T.);
#93=EDGE_CURVE('',#75,#75,#41,.T.);
#94=EDGE_CURVE('',#76,#76,#42,.T.);
#95=EDGE_CURVE('',#77,#77,#43,.T.);
#96=EDGE_CURVE('',#77,#71,#48,.T.);
#97=EDGE_CURVE('',#72,#76,#49,.T.);
#98=ORIENTED_EDGE('',*,*,#78,.F.);
#99=ORIENTED_EDGE('',*,*,#79,.F.);
#100=ORIENTED_EDGE('',*,*,#80,.T.);
#101=ORIENTED_EDGE('',*,*,#81,.F.);
#102=ORIENTED_EDGE('',*,*,#80,.F.);
#103=ORIENTED_EDGE('',*,*,#82,.F.);
#104=ORIENTED_EDGE('',*,*,#83,.F.);
#105=ORIENTED_EDGE('',*,*,#84,.F.);
#106=ORIENTED_EDGE('',*,*,#81,.T.);
#107=ORIENTED_EDGE('',*,*,#85,.F.);
#108=ORIENTED_EDGE('',*,*,#86,.F.);
#109=ORIENTED_EDGE('',*,*,#87,.F.);
#110=ORIENTED_EDGE('',*,*,#88,.F.);
#111=ORIENTED_EDGE('',*,*,#89,.T.);
#112=ORIENTED_EDGE('',*,*,#84,.T.);
#113=ORIENTED_EDGE('',*,*,#89,.F.);
#114=ORIENTED_EDGE('',*,*,#90,.T.);
#115=ORIENTED_EDGE('',*,*,#91,.T.);
#116=ORIENTED_EDGE('',*,*,#79,.T.);
#117=ORIENTED_EDGE('',*,*,#78,.T.);
#118=ORIENTED_EDGE('',*,*,#92,.T.);
#119=ORIENTED_EDGE('',*,*,#93,.F.);
#120=ORIENTED_EDGE('',*,*,#92,.F.);
#121=ORIENTED_EDGE('',*,*,#83,.T.);
#122=ORIENTED_EDGE('',*,*,#82,.T.);
#123=ORIENTED_EDGE('',*,*,#91,.F.);
#124=ORIENTED_EDGE('',*,*,#94,.F.);
#125=ORIENTED_EDGE('',*,*,#93,.T.);
#126=ORIENTED_EDGE('',*,*,#95,.F.);
#127=ORIENTED_EDGE('',*,*,#96,.T.);
#128=ORIENTED_EDGE('',*,*,#88,.T.);
#129=ORIENTED_EDGE('',*,*,#87,.T.);
#130=ORIENTED_EDGE('',*,*,#97,.T.);
#131=ORIENTED_EDGE('',*,*,#94,.T.);
#132=ORIENTED_EDGE('',*,*,#97,.F.);
#133=ORIENTED_EDGE('',*,*,#86,.T.);
#134=ORIENTED_EDGE('',*,*,#85,.T.);
#135=ORIENTED_EDGE('',*,*,#96,.F.);
#136=ORIENTED_EDGE('',*,*,#95,.T.);
#137=ORIENTED_EDGE('',*,*,#90,.F.);
#138=CYLINDRICAL_SURFACE('',#169,102.3);
#139=CYLINDRICAL_SURFACE('',#177,125.);
#140=CYLINDRICAL_SURFACE('',#182,102.3);
#141=CYLINDRICAL_SURFACE('',#187,125.);
#142=ADVANCED_FACE('',(#21),#138,.F.);
#143=ADVANCED_FACE('',(#22,#15),#18,.T.);
#144=ADVANCED_FACE('',(#23),#139,.T.);
#145=ADVANCED_FACE('',(#24),#140,.F.);
#146=ADVANCED_FACE('',(#25,#16),#19,.T.);
#147=ADVANCED_FACE('',(#26),#141,.T.);
#148=ADVANCED_FACE('',(#27,#17),#20,.T.);
#149=CLOSED_SHELL('',(#142,#143,#144,#145,#146,#147,#148));
#150=DERIVED_UNIT_ELEMENT(#152,1.);
#151=DERIVED_UNIT_ELEMENT(#287,-3.);
#152=(
MASS_UNIT()
NAMED_UNIT(*)
SI_UNIT($,.GRAM.)
);
#153=DERIVED_UNIT((#150,#151));
#154=MEASURE_REPRESENTATION_ITEM('density measure',
POSITIVE_RATIO_MEASURE(1.),#153);
#155=PROPERTY_DEFINITION_REPRESENTATION(#160,#157);
#156=PROPERTY_DEFINITION_REPRESENTATION(#161,#158);
#157=REPRESENTATION('material name',(#159),#284);
#158=REPRESENTATION('density',(#154),#284);
#159=DESCRIPTIVE_REPRESENTATION_ITEM('PE','PE');
#160=PROPERTY_DEFINITION('material property','material name',#294);
#161=PROPERTY_DEFINITION('material property','density of part',#294);
#162=DATE_TIME_ROLE('creation_date');
#163=APPLIED_DATE_AND_TIME_ASSIGNMENT(#164,#162,(#294));
#164=DATE_AND_TIME(#165,#166);
#165=CALENDAR_DATE(2021,19,10);
#166=LOCAL_TIME(0,0,0.,#167);
#167=COORDINATED_UNIVERSAL_TIME_OFFSET(0,0,.BEHIND.);
#168=AXIS2_PLACEMENT_3D('placement',#240,#190,#191);
#169=AXIS2_PLACEMENT_3D('',#241,#192,#193);
#170=AXIS2_PLACEMENT_3D('',#244,#194,#195);
#171=AXIS2_PLACEMENT_3D('',#246,#196,#197);
#172=AXIS2_PLACEMENT_3D('',#249,#199,#200);
#173=AXIS2_PLACEMENT_3D('',#251,#201,#202);
#174=AXIS2_PLACEMENT_3D('',#252,#203,#204);
#175=AXIS2_PLACEMENT_3D('',#253,#205,#206);
#176=AXIS2_PLACEMENT_3D('',#255,#207,#208);
#177=AXIS2_PLACEMENT_3D('',#256,#209,#210);
#178=AXIS2_PLACEMENT_3D('',#259,#211,#212);
#179=AXIS2_PLACEMENT_3D('',#261,#213,#214);
#180=AXIS2_PLACEMENT_3D('',#263,#215,#216);
#181=AXIS2_PLACEMENT_3D('',#264,#217,#218);
#182=AXIS2_PLACEMENT_3D('',#266,#220,#221);
#183=AXIS2_PLACEMENT_3D('',#268,#222,#223);
#184=AXIS2_PLACEMENT_3D('',#272,#226,#227);
#185=AXIS2_PLACEMENT_3D('',#273,#228,#229);
#186=AXIS2_PLACEMENT_3D('',#275,#230,#231);
#187=AXIS2_PLACEMENT_3D('',#276,#232,#233);
#188=AXIS2_PLACEMENT_3D('',#278,#234,#235);
#189=AXIS2_PLACEMENT_3D('',#281,#238,#239);
#190=DIRECTION('axis',(0.,0.,1.));
#191=DIRECTION('refdir',(1.,0.,0.));
#192=DIRECTION('center_axis',(0.707106781186548,0.,0.707106781186547));
#193=DIRECTION('ref_axis',(0.707106781186548,0.,-0.707106781186547));
#194=DIRECTION('center_axis',(-0.923879532511287,0.,-0.38268343236509));
#195=DIRECTION('ref_axis',(-0.38268343236509,0.,0.923879532511287));
#196=DIRECTION('center_axis',(0.38268343236509,0.,-0.923879532511287));
#197=DIRECTION('ref_axis',(-0.923879532511287,0.,-0.38268343236509));
#198=DIRECTION('',(-0.707106781186548,0.,-0.707106781186547));
#199=DIRECTION('center_axis',(0.707106781186548,0.,0.707106781186547));
#200=DIRECTION('ref_axis',(0.707106781186547,0.,-0.707106781186548));
#201=DIRECTION('center_axis',(0.38268343236509,0.,-0.923879532511287));
#202=DIRECTION('ref_axis',(-0.923879532511287,0.,-0.38268343236509));
#203=DIRECTION('center_axis',(-0.923879532511287,0.,-0.38268343236509));
#204=DIRECTION('ref_axis',(-0.38268343236509,0.,0.923879532511287));
#205=DIRECTION('center_axis',(-0.707106781186548,0.,-0.707106781186547));
#206=DIRECTION('ref_axis',(-0.707106781186547,0.,0.707106781186548));
#207=DIRECTION('center_axis',(0.707106781186548,0.,0.707106781186547));
#208=DIRECTION('ref_axis',(0.707106781186547,0.,-0.707106781186548));
#209=DIRECTION('center_axis',(0.707106781186548,0.,0.707106781186547));
#210=DIRECTION('ref_axis',(0.707106781186548,0.,-0.707106781186547));
#211=DIRECTION('center_axis',(-0.38268343236509,0.,0.923879532511287));
#212=DIRECTION('ref_axis',(0.923879532511287,0.,0.38268343236509));
#213=DIRECTION('center_axis',(0.923879532511287,0.,0.382683432365089));
#214=DIRECTION('ref_axis',(0.382683432365089,0.,-0.923879532511287));
#215=DIRECTION('center_axis',(0.923879532511287,0.,0.382683432365089));
#216=DIRECTION('ref_axis',(0.382683432365089,0.,-0.923879532511287));
#217=DIRECTION('center_axis',(-0.38268343236509,0.,0.923879532511287));
#218=DIRECTION('ref_axis',(0.923879532511287,0.,0.38268343236509));
#219=DIRECTION('',(-0.707106781186548,0.,-0.707106781186547));
#220=DIRECTION('center_axis',(-1.,0.,2.22044604925031E-18));
#221=DIRECTION('ref_axis',(2.22044604925031E-18,0.,1.));
#222=DIRECTION('center_axis',(-1.,0.,2.22044604925031E-18));
#223=DIRECTION('ref_axis',(2.22044604925031E-18,0.,1.));
#224=DIRECTION('',(1.,0.,-2.22044604925031E-18));
#225=DIRECTION('',(1.,0.,-2.22044604925031E-18));
#226=DIRECTION('center_axis',(-1.,0.,2.22044604925031E-18));
#227=DIRECTION('ref_axis',(2.22044604925031E-18,0.,1.));
#228=DIRECTION('center_axis',(1.,0.,-2.22044604925031E-18));
#229=DIRECTION('ref_axis',(-2.22044604925031E-18,0.,-1.));
#230=DIRECTION('center_axis',(-1.,0.,2.22044604925031E-18));
#231=DIRECTION('ref_axis',(2.22044604925031E-18,0.,1.));
#232=DIRECTION('center_axis',(-1.,0.,2.22044604925031E-18));
#233=DIRECTION('ref_axis',(2.22044604925031E-18,0.,1.));
#234=DIRECTION('center_axis',(-1.,0.,2.22044604925031E-18));
#235=DIRECTION('ref_axis',(2.22044604925031E-18,0.,1.));
#236=DIRECTION('',(1.,0.,-2.22044604925031E-18));
#237=DIRECTION('',(1.,0.,-2.22044604925031E-18));
#238=DIRECTION('center_axis',(-1.,0.,2.22044604925031E-18));
#239=DIRECTION('ref_axis',(2.22044604925031E-18,0.,1.));
#240=CARTESIAN_POINT('',(0.,0.,0.));
#241=CARTESIAN_POINT('Origin',(-34.7601910021414,0.,-212.760191002141));
#242=CARTESIAN_POINT('',(178.,102.3,0.));
#243=CARTESIAN_POINT('',(220.374047430768,-1.25281367552774E-14,-102.3));
#244=CARTESIAN_POINT('Origin',(178.,0.,0.));
#245=CARTESIAN_POINT('',(-68.9740474307677,-1.25281367552774E-14,-102.3));
#246=CARTESIAN_POINT('Origin',(178.,0.,0.));
#247=CARTESIAN_POINT('',(-319.857405719667,0.,-353.183358288899));
#248=CARTESIAN_POINT('',(-107.097214717525,-1.25281367552774E-14,-140.423167286758));
#249=CARTESIAN_POINT('Origin',(-247.520382004283,0.,-425.520382004283));
#250=CARTESIAN_POINT('',(178.,-102.3,0.));
#251=CARTESIAN_POINT('Origin',(178.,0.,0.));
#252=CARTESIAN_POINT('Origin',(178.,0.,0.));
#253=CARTESIAN_POINT('Origin',(-159.132034355964,0.,-513.908729652601));
#254=CARTESIAN_POINT('',(-335.908729652602,-1.53080849893419E-14,-337.132034355965));
#255=CARTESIAN_POINT('Origin',(-247.520382004283,0.,-425.520382004283));
#256=CARTESIAN_POINT('Origin',(-34.7601910021415,0.,-212.760191002141));
#257=CARTESIAN_POINT('',(178.,125.,1.3251177932716E-13));
#258=CARTESIAN_POINT('',(-123.776695296637,-1.53080849893419E-14,-125.));
#259=CARTESIAN_POINT('Origin',(178.,0.,3.5527136788005E-14));
#260=CARTESIAN_POINT('',(229.776695296637,-1.53080849893419E-14,-125.));
#261=CARTESIAN_POINT('Origin',(178.,0.,-3.5527136788005E-14));
#262=CARTESIAN_POINT('',(178.,-125.,1.3251177932716E-13));
#263=CARTESIAN_POINT('Origin',(178.,0.,-3.5527136788005E-14));
#264=CARTESIAN_POINT('Origin',(178.,0.,3.5527136788005E-14));
#265=CARTESIAN_POINT('',(-123.14853865046,-1.53080849893419E-14,-124.371843353823));
#266=CARTESIAN_POINT('Origin',(0.,0.,9.99200722162641E-15));
#267=CARTESIAN_POINT('',(-500.,-1.25281367552774E-14,-102.3));
#268=CARTESIAN_POINT('Origin',(-500.,0.,1.11022302462516E-14));
#269=CARTESIAN_POINT('',(-2.27151630838307E-16,-1.25281367552774E-14,-102.3));
#270=CARTESIAN_POINT('',(500.,0.,-102.3));
#271=CARTESIAN_POINT('',(-2.27151630838307E-16,-1.25281367552774E-14,-102.3));
#272=CARTESIAN_POINT('Origin',(500.,0.,8.88178419700125E-15));
#273=CARTESIAN_POINT('Origin',(500.,0.,125.));
#274=CARTESIAN_POINT('',(500.,-1.53080849893419E-14,-125.));
#275=CARTESIAN_POINT('Origin',(500.,0.,8.88178419700125E-15));
#276=CARTESIAN_POINT('Origin',(0.,0.,9.99200722162641E-15));
#277=CARTESIAN_POINT('',(-500.,-1.53080849893419E-14,-125.));
#278=CARTESIAN_POINT('Origin',(-500.,0.,1.11022302462516E-14));
#279=CARTESIAN_POINT('',(-2.77555756156289E-16,-1.53080849893419E-14,-125.));
#280=CARTESIAN_POINT('',(-2.77555756156289E-16,-1.53080849893419E-14,-125.));
#281=CARTESIAN_POINT('Origin',(-500.,0.,102.3));
#282=UNCERTAINTY_MEASURE_WITH_UNIT(LENGTH_MEASURE(0.01),#286,
'DISTANCE_ACCURACY_VALUE',
'Maximum model space distance between geometric entities at asserted c
onnectivities');
#283=UNCERTAINTY_MEASURE_WITH_UNIT(LENGTH_MEASURE(0.01),#286,
'DISTANCE_ACCURACY_VALUE',
'Maximum model space distance between geometric entities at asserted c
onnectivities');
#284=(
GEOMETRIC_REPRESENTATION_CONTEXT(3)
GLOBAL_UNCERTAINTY_ASSIGNED_CONTEXT((#282))
GLOBAL_UNIT_ASSIGNED_CONTEXT((#286,#288,#289))
REPRESENTATION_CONTEXT('','3D')
);
#285=(
GEOMETRIC_REPRESENTATION_CONTEXT(3)
GLOBAL_UNCERTAINTY_ASSIGNED_CONTEXT((#283))
GLOBAL_UNIT_ASSIGNED_CONTEXT((#286,#288,#289))
REPRESENTATION_CONTEXT('','3D')
);
#286=(
LENGTH_UNIT()
NAMED_UNIT(*)
SI_UNIT(.MILLI.,.METRE.)
);
#287=(
LENGTH_UNIT()
NAMED_UNIT(*)
SI_UNIT(.CENTI.,.METRE.)
);
#288=(
NAMED_UNIT(*)
PLANE_ANGLE_UNIT()
SI_UNIT($,.RADIAN.)
);
#289=(
NAMED_UNIT(*)
SI_UNIT($,.STERADIAN.)
SOLID_ANGLE_UNIT()
);
#290=SHAPE_DEFINITION_REPRESENTATION(#291,#292);
#291=PRODUCT_DEFINITION_SHAPE('',$,#294);
#292=SHAPE_REPRESENTATION('',(#168),#284);
#293=PRODUCT_DEFINITION_CONTEXT('part definition',#298,'design');
#294=PRODUCT_DEFINITION('S-YDE11-250','S-YDE11-250',#295,#293);
#295=PRODUCT_DEFINITION_FORMATION('0',$,#300);
#296=PRODUCT_RELATED_PRODUCT_CATEGORY('S-YDE11-250','S-YDE11-250',(#300));
#297=APPLICATION_PROTOCOL_DEFINITION('international standard',
'automotive_design',2009,#298);
#298=APPLICATION_CONTEXT(
'Core Data for Automotive Mechanical Design Process');
#299=PRODUCT_CONTEXT('part definition',#298,'mechanical');
#300=PRODUCT('S-YDE11-250','S-YDE11-250',
'PE100 Segment Wye, \X\D8250, SDR11 PN6 (Factor 0,5)',(#299));
#301=PRESENTATION_STYLE_ASSIGNMENT((#302));
#302=SURFACE_STYLE_USAGE(.BOTH.,#305);
#303=SURFACE_STYLE_RENDERING_WITH_PROPERTIES($,#309,(#304));
#304=SURFACE_STYLE_TRANSPARENT(0.);
#305=SURFACE_SIDE_STYLE('',(#306,#303));
#306=SURFACE_STYLE_FILL_AREA(#307);
#307=FILL_AREA_STYLE('',(#308));
#308=FILL_AREA_STYLE_COLOUR('',#309);
#309=COLOUR_RGB('',0.109803921568627,0.109803921568627,0.129411764705882);
ENDSEC;
END-ISO-10303-21;
