ISO-10303-21;
HEADER;
/* Generated by software containing ST-Developer
 * from STEP Tools, Inc. (www.steptools.com) 
 */

FILE_DESCRIPTION(
/* description */ ('PE100 Sweep Bend 90°, Ø180, SDR17 PN10'),
/* implementation_level */ '2;1');

FILE_NAME(
/* name */ 
'S90E17-RC-180',
/* time_stamp */ '2022-07-06T16:22:32+02:00',
/* author */ ('COAB Solutions'),
/* organization */ ('GPA Flowsystem'),
/* preprocessor_version */ 'ST-DEVELOPER v18.1',
/* originating_system */ 'www.coabsolutions.com',
/* authorisation */ '');

FILE_SCHEMA (('AUTOMOTIVE_DESIGN { 1 0 10303 214 3 1 1 }'));
ENDSEC;

DATA;
#10=MECHANICAL_DESIGN_GEOMETRIC_PRESENTATION_REPRESENTATION('',(#13),#253);
#11=SHAPE_REPRESENTATION_RELATIONSHIP('SRR','None',#260,#12);
#12=ADVANCED_BREP_SHAPE_REPRESENTATION('',(#14),#252);
#13=STYLED_ITEM('',(#269),#14);
#14=MANIFOLD_SOLID_BREP('Solid2',#129);
#15=FACE_BOUND('',#36,.T.);
#16=FACE_BOUND('',#38,.T.);
#17=PLANE('',#167);
#18=PLANE('',#168);
#19=TOROIDAL_SURFACE('',#152,270.,79.3);
#20=TOROIDAL_SURFACE('',#161,270.,90.);
#21=FACE_OUTER_BOUND('',#29,.T.);
#22=FACE_OUTER_BOUND('',#30,.T.);
#23=FACE_OUTER_BOUND('',#31,.T.);
#24=FACE_OUTER_BOUND('',#32,.T.);
#25=FACE_OUTER_BOUND('',#33,.T.);
#26=FACE_OUTER_BOUND('',#34,.T.);
#27=FACE_OUTER_BOUND('',#35,.T.);
#28=FACE_OUTER_BOUND('',#37,.T.);
#29=EDGE_LOOP('',(#85,#86,#87,#88));
#30=EDGE_LOOP('',(#89,#90,#91,#92));
#31=EDGE_LOOP('',(#93,#94,#95,#96));
#32=EDGE_LOOP('',(#97,#98,#99,#100,#101));
#33=EDGE_LOOP('',(#102,#103,#104,#105,#106,#107));
#34=EDGE_LOOP('',(#108,#109,#110,#111,#112));
#35=EDGE_LOOP('',(#113));
#36=EDGE_LOOP('',(#114));
#37=EDGE_LOOP('',(#115));
#38=EDGE_LOOP('',(#116));
#39=LINE('',#220,#43);
#40=LINE('',#229,#44);
#41=LINE('',#234,#45);
#42=LINE('',#246,#46);
#43=VECTOR('',#175,79.3);
#44=VECTOR('',#188,79.3);
#45=VECTOR('',#193,90.);
#46=VECTOR('',#208,90.);
#47=CIRCLE('',#150,79.3);
#48=CIRCLE('',#151,79.3);
#49=CIRCLE('',#153,79.3);
#50=CIRCLE('',#154,190.7);
#51=CIRCLE('',#156,79.3);
#52=CIRCLE('',#158,90.);
#53=CIRCLE('',#159,90.);
#54=CIRCLE('',#160,90.);
#55=CIRCLE('',#162,180.);
#56=CIRCLE('',#163,90.);
#57=CIRCLE('',#164,90.);
#58=CIRCLE('',#166,90.);
#59=VERTEX_POINT('',#217);
#60=VERTEX_POINT('',#219);
#61=VERTEX_POINT('',#223);
#62=VERTEX_POINT('',#227);
#63=VERTEX_POINT('',#231);
#64=VERTEX_POINT('',#233);
#65=VERTEX_POINT('',#235);
#66=VERTEX_POINT('',#239);
#67=VERTEX_POINT('',#241);
#68=VERTEX_POINT('',#245);
#69=EDGE_CURVE('',#59,#59,#47,.T.);
#70=EDGE_CURVE('',#59,#60,#39,.T.);
#71=EDGE_CURVE('',#60,#60,#48,.T.);
#72=EDGE_CURVE('',#61,#61,#49,.T.);
#73=EDGE_CURVE('',#61,#59,#50,.T.);
#74=EDGE_CURVE('',#62,#62,#51,.T.);
#75=EDGE_CURVE('',#62,#61,#40,.T.);
#76=EDGE_CURVE('',#63,#63,#52,.T.);
#77=EDGE_CURVE('',#63,#64,#41,.T.);
#78=EDGE_CURVE('',#64,#65,#53,.T.);
#79=EDGE_CURVE('',#65,#64,#54,.T.);
#80=EDGE_CURVE('',#65,#66,#55,.T.);
#81=EDGE_CURVE('',#66,#67,#56,.T.);
#82=EDGE_CURVE('',#67,#66,#57,.T.);
#83=EDGE_CURVE('',#67,#68,#42,.T.);
#84=EDGE_CURVE('',#68,#68,#58,.T.);
#85=ORIENTED_EDGE('',*,*,#69,.F.);
#86=ORIENTED_EDGE('',*,*,#70,.T.);
#87=ORIENTED_EDGE('',*,*,#71,.F.);
#88=ORIENTED_EDGE('',*,*,#70,.F.);
#89=ORIENTED_EDGE('',*,*,#72,.F.);
#90=ORIENTED_EDGE('',*,*,#73,.T.);
#91=ORIENTED_EDGE('',*,*,#69,.T.);
#92=ORIENTED_EDGE('',*,*,#73,.F.);
#93=ORIENTED_EDGE('',*,*,#74,.F.);
#94=ORIENTED_EDGE('',*,*,#75,.T.);
#95=ORIENTED_EDGE('',*,*,#72,.T.);
#96=ORIENTED_EDGE('',*,*,#75,.F.);
#97=ORIENTED_EDGE('',*,*,#76,.F.);
#98=ORIENTED_EDGE('',*,*,#77,.T.);
#99=ORIENTED_EDGE('',*,*,#78,.T.);
#100=ORIENTED_EDGE('',*,*,#79,.T.);
#101=ORIENTED_EDGE('',*,*,#77,.F.);
#102=ORIENTED_EDGE('',*,*,#79,.F.);
#103=ORIENTED_EDGE('',*,*,#80,.T.);
#104=ORIENTED_EDGE('',*,*,#81,.T.);
#105=ORIENTED_EDGE('',*,*,#82,.T.);
#106=ORIENTED_EDGE('',*,*,#80,.F.);
#107=ORIENTED_EDGE('',*,*,#78,.F.);
#108=ORIENTED_EDGE('',*,*,#81,.F.);
#109=ORIENTED_EDGE('',*,*,#82,.F.);
#110=ORIENTED_EDGE('',*,*,#83,.T.);
#111=ORIENTED_EDGE('',*,*,#84,.T.);
#112=ORIENTED_EDGE('',*,*,#83,.F.);
#113=ORIENTED_EDGE('',*,*,#76,.T.);
#114=ORIENTED_EDGE('',*,*,#71,.T.);
#115=ORIENTED_EDGE('',*,*,#84,.F.);
#116=ORIENTED_EDGE('',*,*,#74,.T.);
#117=CYLINDRICAL_SURFACE('',#149,79.3);
#118=CYLINDRICAL_SURFACE('',#155,79.3);
#119=CYLINDRICAL_SURFACE('',#157,90.);
#120=CYLINDRICAL_SURFACE('',#165,90.);
#121=ADVANCED_FACE('',(#21),#117,.F.);
#122=ADVANCED_FACE('',(#22),#19,.F.);
#123=ADVANCED_FACE('',(#23),#118,.F.);
#124=ADVANCED_FACE('',(#24),#119,.T.);
#125=ADVANCED_FACE('',(#25),#20,.T.);
#126=ADVANCED_FACE('',(#26),#120,.T.);
#127=ADVANCED_FACE('',(#27,#15),#17,.T.);
#128=ADVANCED_FACE('',(#28,#16),#18,.F.);
#129=CLOSED_SHELL('',(#121,#122,#123,#124,#125,#126,#127,#128));
#130=DERIVED_UNIT_ELEMENT(#132,1.);
#131=DERIVED_UNIT_ELEMENT(#255,-3.);
#132=(
MASS_UNIT()
NAMED_UNIT(*)
SI_UNIT($,.GRAM.)
);
#133=DERIVED_UNIT((#130,#131));
#134=MEASURE_REPRESENTATION_ITEM('density measure',
POSITIVE_RATIO_MEASURE(1.),#133);
#135=PROPERTY_DEFINITION_REPRESENTATION(#140,#137);
#136=PROPERTY_DEFINITION_REPRESENTATION(#141,#138);
#137=REPRESENTATION('material name',(#139),#252);
#138=REPRESENTATION('density',(#134),#252);
#139=DESCRIPTIVE_REPRESENTATION_ITEM('PE','PE');
#140=PROPERTY_DEFINITION('material property','material name',#262);
#141=PROPERTY_DEFINITION('material property','density of part',#262);
#142=DATE_TIME_ROLE('creation_date');
#143=APPLIED_DATE_AND_TIME_ASSIGNMENT(#144,#142,(#262));
#144=DATE_AND_TIME(#145,#146);
#145=CALENDAR_DATE(2021,19,10);
#146=LOCAL_TIME(0,0,0.,#147);
#147=COORDINATED_UNIVERSAL_TIME_OFFSET(0,0,.BEHIND.);
#148=AXIS2_PLACEMENT_3D('placement',#215,#169,#170);
#149=AXIS2_PLACEMENT_3D('',#216,#171,#172);
#150=AXIS2_PLACEMENT_3D('',#218,#173,#174);
#151=AXIS2_PLACEMENT_3D('',#221,#176,#177);
#152=AXIS2_PLACEMENT_3D('',#222,#178,#179);
#153=AXIS2_PLACEMENT_3D('',#224,#180,#181);
#154=AXIS2_PLACEMENT_3D('',#225,#182,#183);
#155=AXIS2_PLACEMENT_3D('',#226,#184,#185);
#156=AXIS2_PLACEMENT_3D('',#228,#186,#187);
#157=AXIS2_PLACEMENT_3D('',#230,#189,#190);
#158=AXIS2_PLACEMENT_3D('',#232,#191,#192);
#159=AXIS2_PLACEMENT_3D('',#236,#194,#195);
#160=AXIS2_PLACEMENT_3D('',#237,#196,#197);
#161=AXIS2_PLACEMENT_3D('',#238,#198,#199);
#162=AXIS2_PLACEMENT_3D('',#240,#200,#201);
#163=AXIS2_PLACEMENT_3D('',#242,#202,#203);
#164=AXIS2_PLACEMENT_3D('',#243,#204,#205);
#165=AXIS2_PLACEMENT_3D('',#244,#206,#207);
#166=AXIS2_PLACEMENT_3D('',#247,#209,#210);
#167=AXIS2_PLACEMENT_3D('',#248,#211,#212);
#168=AXIS2_PLACEMENT_3D('',#249,#213,#214);
#169=DIRECTION('axis',(0.,0.,1.));
#170=DIRECTION('refdir',(1.,0.,0.));
#171=DIRECTION('center_axis',(0.,1.,0.));
#172=DIRECTION('ref_axis',(1.,0.,0.));
#173=DIRECTION('center_axis',(-1.60812264967664E-16,1.,0.));
#174=DIRECTION('ref_axis',(1.,1.60812264967664E-16,0.));
#175=DIRECTION('',(0.,1.,0.));
#176=DIRECTION('center_axis',(1.60812264967664E-16,-1.,0.));
#177=DIRECTION('ref_axis',(1.,0.,0.));
#178=DIRECTION('center_axis',(0.,0.,1.));
#179=DIRECTION('ref_axis',(1.,0.,0.));
#180=DIRECTION('center_axis',(1.,0.,0.));
#181=DIRECTION('ref_axis',(0.,-1.,0.));
#182=DIRECTION('center_axis',(0.,0.,1.));
#183=DIRECTION('ref_axis',(1.,0.,0.));
#184=DIRECTION('center_axis',(1.,0.,0.));
#185=DIRECTION('ref_axis',(0.,-1.,0.));
#186=DIRECTION('center_axis',(1.,0.,0.));
#187=DIRECTION('ref_axis',(0.,-1.,0.));
#188=DIRECTION('',(1.,0.,0.));
#189=DIRECTION('center_axis',(0.,1.,0.));
#190=DIRECTION('ref_axis',(-1.,0.,0.));
#191=DIRECTION('center_axis',(-1.60812264967664E-16,1.,0.));
#192=DIRECTION('ref_axis',(-1.,-1.60812264967664E-16,0.));
#193=DIRECTION('',(0.,-1.,0.));
#194=DIRECTION('center_axis',(-1.60812264967664E-16,1.,0.));
#195=DIRECTION('ref_axis',(-1.,-1.60812264967664E-16,0.));
#196=DIRECTION('center_axis',(-1.60812264967664E-16,1.,0.));
#197=DIRECTION('ref_axis',(-1.,-1.60812264967664E-16,0.));
#198=DIRECTION('center_axis',(0.,0.,1.));
#199=DIRECTION('ref_axis',(1.,0.,0.));
#200=DIRECTION('center_axis',(0.,0.,-1.));
#201=DIRECTION('ref_axis',(1.,0.,0.));
#202=DIRECTION('center_axis',(1.,0.,0.));
#203=DIRECTION('ref_axis',(0.,1.,0.));
#204=DIRECTION('center_axis',(1.,0.,0.));
#205=DIRECTION('ref_axis',(0.,1.,0.));
#206=DIRECTION('center_axis',(1.,0.,0.));
#207=DIRECTION('ref_axis',(0.,1.,0.));
#208=DIRECTION('',(-1.,0.,0.));
#209=DIRECTION('center_axis',(1.,0.,0.));
#210=DIRECTION('ref_axis',(0.,1.,0.));
#211=DIRECTION('center_axis',(-1.60812264967664E-16,1.,0.));
#212=DIRECTION('ref_axis',(0.,0.,-1.));
#213=DIRECTION('center_axis',(1.,0.,0.));
#214=DIRECTION('ref_axis',(0.,0.,-1.));
#215=CARTESIAN_POINT('',(0.,0.,0.));
#216=CARTESIAN_POINT('Origin',(590.,270.,0.));
#217=CARTESIAN_POINT('',(510.7,270.,9.71144911723851E-15));
#218=CARTESIAN_POINT('Origin',(590.,270.,0.));
#219=CARTESIAN_POINT('',(510.7,590.,9.71144911723851E-15));
#220=CARTESIAN_POINT('',(510.7,270.,9.71144911723851E-15));
#221=CARTESIAN_POINT('Origin',(590.,590.,0.));
#222=CARTESIAN_POINT('Origin',(320.,270.,0.));
#223=CARTESIAN_POINT('',(320.,79.3,9.71144911723851E-15));
#224=CARTESIAN_POINT('Origin',(320.,0.,0.));
#225=CARTESIAN_POINT('Origin',(320.,270.,-9.71144911723851E-15));
#226=CARTESIAN_POINT('Origin',(0.,0.,0.));
#227=CARTESIAN_POINT('',(0.,79.3,9.71144911723851E-15));
#228=CARTESIAN_POINT('Origin',(0.,0.,0.));
#229=CARTESIAN_POINT('',(0.,79.3,9.71144911723851E-15));
#230=CARTESIAN_POINT('Origin',(590.,270.,0.));
#231=CARTESIAN_POINT('',(680.,590.,-1.10218211923262E-14));
#232=CARTESIAN_POINT('Origin',(590.,590.,0.));
#233=CARTESIAN_POINT('',(680.,270.,-1.10218211923262E-14));
#234=CARTESIAN_POINT('',(680.,270.,-1.10218211923262E-14));
#235=CARTESIAN_POINT('',(500.,270.,0.));
#236=CARTESIAN_POINT('Origin',(590.,270.,0.));
#237=CARTESIAN_POINT('Origin',(590.,270.,0.));
#238=CARTESIAN_POINT('Origin',(320.,270.,0.));
#239=CARTESIAN_POINT('',(320.,90.,0.));
#240=CARTESIAN_POINT('Origin',(320.,270.,-1.10218211923262E-14));
#241=CARTESIAN_POINT('',(320.,-90.,-1.10218211923262E-14));
#242=CARTESIAN_POINT('Origin',(320.,0.,0.));
#243=CARTESIAN_POINT('Origin',(320.,0.,0.));
#244=CARTESIAN_POINT('Origin',(0.,0.,0.));
#245=CARTESIAN_POINT('',(0.,-90.,-1.10218211923262E-14));
#246=CARTESIAN_POINT('',(0.,-90.,-1.10218211923262E-14));
#247=CARTESIAN_POINT('Origin',(0.,0.,0.));
#248=CARTESIAN_POINT('Origin',(590.,590.,0.));
#249=CARTESIAN_POINT('Origin',(0.,0.,0.));
#250=UNCERTAINTY_MEASURE_WITH_UNIT(LENGTH_MEASURE(0.01),#254,
'DISTANCE_ACCURACY_VALUE',
'Maximum model space distance between geometric entities at asserted c
onnectivities');
#251=UNCERTAINTY_MEASURE_WITH_UNIT(LENGTH_MEASURE(0.01),#254,
'DISTANCE_ACCURACY_VALUE',
'Maximum model space distance between geometric entities at asserted c
onnectivities');
#252=(
GEOMETRIC_REPRESENTATION_CONTEXT(3)
GLOBAL_UNCERTAINTY_ASSIGNED_CONTEXT((#250))
GLOBAL_UNIT_ASSIGNED_CONTEXT((#254,#256,#257))
REPRESENTATION_CONTEXT('','3D')
);
#253=(
GEOMETRIC_REPRESENTATION_CONTEXT(3)
GLOBAL_UNCERTAINTY_ASSIGNED_CONTEXT((#251))
GLOBAL_UNIT_ASSIGNED_CONTEXT((#254,#256,#257))
REPRESENTATION_CONTEXT('','3D')
);
#254=(
LENGTH_UNIT()
NAMED_UNIT(*)
SI_UNIT(.MILLI.,.METRE.)
);
#255=(
LENGTH_UNIT()
NAMED_UNIT(*)
SI_UNIT(.CENTI.,.METRE.)
);
#256=(
NAMED_UNIT(*)
PLANE_ANGLE_UNIT()
SI_UNIT($,.RADIAN.)
);
#257=(
NAMED_UNIT(*)
SI_UNIT($,.STERADIAN.)
SOLID_ANGLE_UNIT()
);
#258=SHAPE_DEFINITION_REPRESENTATION(#259,#260);
#259=PRODUCT_DEFINITION_SHAPE('',$,#262);
#260=SHAPE_REPRESENTATION('',(#148),#252);
#261=PRODUCT_DEFINITION_CONTEXT('part definition',#266,'design');
#262=PRODUCT_DEFINITION('S90E17-RC-180','S90E17-RC-180',#263,#261);
#263=PRODUCT_DEFINITION_FORMATION('0',$,#268);
#264=PRODUCT_RELATED_PRODUCT_CATEGORY('S90E17-RC-180','S90E17-RC-180',(#268));
#265=APPLICATION_PROTOCOL_DEFINITION('international standard',
'automotive_design',2009,#266);
#266=APPLICATION_CONTEXT(
'Core Data for Automotive Mechanical Design Process');
#267=PRODUCT_CONTEXT('part definition',#266,'mechanical');
#268=PRODUCT('S90E17-RC-180','S90E17-RC-180',
'PE100 Sweep Bend 90\X\B0, \X\D8180, SDR17 PN10',(#267));
#269=PRESENTATION_STYLE_ASSIGNMENT((#270));
#270=SURFACE_STYLE_USAGE(.BOTH.,#273);
#271=SURFACE_STYLE_RENDERING_WITH_PROPERTIES($,#277,(#272));
#272=SURFACE_STYLE_TRANSPARENT(0.);
#273=SURFACE_SIDE_STYLE('',(#274,#271));
#274=SURFACE_STYLE_FILL_AREA(#275);
#275=FILL_AREA_STYLE('',(#276));
#276=FILL_AREA_STYLE_COLOUR('',#277);
#277=COLOUR_RGB('',0.109803921568627,0.109803921568627,0.129411764705882);
ENDSEC;
END-ISO-10303-21;
