ISO-10303-21;
HEADER;
/* Generated by software containing ST-Developer
 * from STEP Tools, Inc. (www.steptools.com) 
 */

FILE_DESCRIPTION(
/* description */ ('PVC Coupling, Ø140, PN16'),
/* implementation_level */ '2;1');

FILE_NAME(
/* name */ 
'SO10U-140',
/* time_stamp */ '2022-05-11T16:00:56+02:00',
/* author */ ('COAB Solutions'),
/* organization */ ('GPA Flowsystem'),
/* preprocessor_version */ 'ST-DEVELOPER v18.1',
/* originating_system */ 'www.coabsolution.com',
/* authorisation */ '');

FILE_SCHEMA (('AUTOMOTIVE_DESIGN { 1 0 10303 214 3 1 1 }'));
ENDSEC;

DATA;
#10=MECHANICAL_DESIGN_GEOMETRIC_PRESENTATION_REPRESENTATION('',(#13),#293);
#11=SHAPE_REPRESENTATION_RELATIONSHIP('SRR','None',#300,#12);
#12=ADVANCED_BREP_SHAPE_REPRESENTATION('',(#14),#292);
#13=STYLED_ITEM('',(#309),#14);
#14=MANIFOLD_SOLID_BREP('Solid3',#151);
#15=FACE_BOUND('',#48,.T.);
#16=FACE_BOUND('',#51,.T.);
#17=FACE_BOUND('',#55,.T.);
#18=FACE_BOUND('',#58,.T.);
#19=PLANE('',#179);
#20=PLANE('',#184);
#21=PLANE('',#190);
#22=PLANE('',#194);
#23=LINE('',#260,#27);
#24=LINE('',#277,#28);
#25=LINE('',#280,#29);
#26=LINE('',#287,#30);
#27=VECTOR('',#209,80.5);
#28=VECTOR('',#232,70.);
#29=VECTOR('',#235,70.);
#30=VECTOR('',#244,65.5);
#31=CYLINDRICAL_SURFACE('',#176,80.5);
#32=CYLINDRICAL_SURFACE('',#186,70.);
#33=CYLINDRICAL_SURFACE('',#188,70.);
#34=CYLINDRICAL_SURFACE('',#192,65.5);
#35=FACE_OUTER_BOUND('',#45,.T.);
#36=FACE_OUTER_BOUND('',#46,.T.);
#37=FACE_OUTER_BOUND('',#47,.T.);
#38=FACE_OUTER_BOUND('',#49,.T.);
#39=FACE_OUTER_BOUND('',#50,.T.);
#40=FACE_OUTER_BOUND('',#52,.T.);
#41=FACE_OUTER_BOUND('',#53,.T.);
#42=FACE_OUTER_BOUND('',#54,.T.);
#43=FACE_OUTER_BOUND('',#56,.T.);
#44=FACE_OUTER_BOUND('',#57,.T.);
#45=EDGE_LOOP('',(#103,#104,#105,#106,#107));
#46=EDGE_LOOP('',(#108,#109,#110,#111,#112,#113));
#47=EDGE_LOOP('',(#114));
#48=EDGE_LOOP('',(#115));
#49=EDGE_LOOP('',(#116,#117,#118,#119,#120));
#50=EDGE_LOOP('',(#121));
#51=EDGE_LOOP('',(#122));
#52=EDGE_LOOP('',(#123,#124,#125,#126));
#53=EDGE_LOOP('',(#127,#128,#129,#130));
#54=EDGE_LOOP('',(#131));
#55=EDGE_LOOP('',(#132));
#56=EDGE_LOOP('',(#133,#134,#135,#136));
#57=EDGE_LOOP('',(#137));
#58=EDGE_LOOP('',(#138));
#59=CIRCLE('',#172,80.);
#60=CIRCLE('',#173,0.5);
#61=CIRCLE('',#174,80.5);
#62=CIRCLE('',#175,80.5);
#63=CIRCLE('',#177,80.5);
#64=CIRCLE('',#178,80.5);
#65=CIRCLE('',#180,70.);
#66=CIRCLE('',#182,0.5);
#67=CIRCLE('',#183,80.);
#68=CIRCLE('',#185,70.);
#69=CIRCLE('',#187,70.);
#70=CIRCLE('',#189,70.);
#71=CIRCLE('',#191,65.5);
#72=CIRCLE('',#193,65.5);
#73=VERTEX_POINT('',#251);
#74=VERTEX_POINT('',#253);
#75=VERTEX_POINT('',#255);
#76=VERTEX_POINT('',#259);
#77=VERTEX_POINT('',#261);
#78=VERTEX_POINT('',#265);
#79=VERTEX_POINT('',#268);
#80=VERTEX_POINT('',#272);
#81=VERTEX_POINT('',#275);
#82=VERTEX_POINT('',#279);
#83=VERTEX_POINT('',#283);
#84=VERTEX_POINT('',#286);
#85=EDGE_CURVE('',#73,#73,#59,.T.);
#86=EDGE_CURVE('',#73,#74,#60,.T.);
#87=EDGE_CURVE('',#74,#75,#61,.T.);
#88=EDGE_CURVE('',#75,#74,#62,.T.);
#89=EDGE_CURVE('',#75,#76,#23,.T.);
#90=EDGE_CURVE('',#77,#76,#63,.T.);
#91=EDGE_CURVE('',#76,#77,#64,.T.);
#92=EDGE_CURVE('',#78,#78,#65,.T.);
#93=EDGE_CURVE('',#77,#79,#66,.T.);
#94=EDGE_CURVE('',#79,#79,#67,.T.);
#95=EDGE_CURVE('',#80,#80,#68,.T.);
#96=EDGE_CURVE('',#81,#81,#69,.T.);
#97=EDGE_CURVE('',#81,#80,#24,.T.);
#98=EDGE_CURVE('',#78,#82,#25,.T.);
#99=EDGE_CURVE('',#82,#82,#70,.T.);
#100=EDGE_CURVE('',#83,#83,#71,.T.);
#101=EDGE_CURVE('',#83,#84,#26,.T.);
#102=EDGE_CURVE('',#84,#84,#72,.T.);
#103=ORIENTED_EDGE('',*,*,#85,.T.);
#104=ORIENTED_EDGE('',*,*,#86,.T.);
#105=ORIENTED_EDGE('',*,*,#87,.T.);
#106=ORIENTED_EDGE('',*,*,#88,.T.);
#107=ORIENTED_EDGE('',*,*,#86,.F.);
#108=ORIENTED_EDGE('',*,*,#88,.F.);
#109=ORIENTED_EDGE('',*,*,#89,.T.);
#110=ORIENTED_EDGE('',*,*,#90,.F.);
#111=ORIENTED_EDGE('',*,*,#91,.F.);
#112=ORIENTED_EDGE('',*,*,#89,.F.);
#113=ORIENTED_EDGE('',*,*,#87,.F.);
#114=ORIENTED_EDGE('',*,*,#85,.F.);
#115=ORIENTED_EDGE('',*,*,#92,.F.);
#116=ORIENTED_EDGE('',*,*,#90,.T.);
#117=ORIENTED_EDGE('',*,*,#91,.T.);
#118=ORIENTED_EDGE('',*,*,#93,.T.);
#119=ORIENTED_EDGE('',*,*,#94,.T.);
#120=ORIENTED_EDGE('',*,*,#93,.F.);
#121=ORIENTED_EDGE('',*,*,#94,.F.);
#122=ORIENTED_EDGE('',*,*,#95,.T.);
#123=ORIENTED_EDGE('',*,*,#96,.T.);
#124=ORIENTED_EDGE('',*,*,#97,.T.);
#125=ORIENTED_EDGE('',*,*,#95,.F.);
#126=ORIENTED_EDGE('',*,*,#97,.F.);
#127=ORIENTED_EDGE('',*,*,#92,.T.);
#128=ORIENTED_EDGE('',*,*,#98,.T.);
#129=ORIENTED_EDGE('',*,*,#99,.F.);
#130=ORIENTED_EDGE('',*,*,#98,.F.);
#131=ORIENTED_EDGE('',*,*,#99,.T.);
#132=ORIENTED_EDGE('',*,*,#100,.F.);
#133=ORIENTED_EDGE('',*,*,#100,.T.);
#134=ORIENTED_EDGE('',*,*,#101,.T.);
#135=ORIENTED_EDGE('',*,*,#102,.F.);
#136=ORIENTED_EDGE('',*,*,#101,.F.);
#137=ORIENTED_EDGE('',*,*,#96,.F.);
#138=ORIENTED_EDGE('',*,*,#102,.T.);
#139=TOROIDAL_SURFACE('',#171,80.,0.5);
#140=TOROIDAL_SURFACE('',#181,80.,0.5);
#141=ADVANCED_FACE('',(#35),#139,.T.);
#142=ADVANCED_FACE('',(#36),#31,.T.);
#143=ADVANCED_FACE('',(#37,#15),#19,.T.);
#144=ADVANCED_FACE('',(#38),#140,.T.);
#145=ADVANCED_FACE('',(#39,#16),#20,.T.);
#146=ADVANCED_FACE('',(#40),#32,.F.);
#147=ADVANCED_FACE('',(#41),#33,.F.);
#148=ADVANCED_FACE('',(#42,#17),#21,.T.);
#149=ADVANCED_FACE('',(#43),#34,.F.);
#150=ADVANCED_FACE('',(#44,#18),#22,.T.);
#151=CLOSED_SHELL('',(#141,#142,#143,#144,#145,#146,#147,#148,#149,#150));
#152=DERIVED_UNIT_ELEMENT(#154,1.);
#153=DERIVED_UNIT_ELEMENT(#295,-3.);
#154=(
MASS_UNIT()
NAMED_UNIT(*)
SI_UNIT($,.GRAM.)
);
#155=DERIVED_UNIT((#152,#153));
#156=MEASURE_REPRESENTATION_ITEM('density measure',
POSITIVE_RATIO_MEASURE(1.),#155);
#157=PROPERTY_DEFINITION_REPRESENTATION(#162,#159);
#158=PROPERTY_DEFINITION_REPRESENTATION(#163,#160);
#159=REPRESENTATION('material name',(#161),#292);
#160=REPRESENTATION('density',(#156),#292);
#161=DESCRIPTIVE_REPRESENTATION_ITEM('PVC','PVC');
#162=PROPERTY_DEFINITION('material property','material name',#302);
#163=PROPERTY_DEFINITION('material property','density of part',#302);
#164=DATE_TIME_ROLE('creation_date');
#165=APPLIED_DATE_AND_TIME_ASSIGNMENT(#166,#164,(#302));
#166=DATE_AND_TIME(#167,#168);
#167=CALENDAR_DATE(2021,19,10);
#168=LOCAL_TIME(0,0,0.,#169);
#169=COORDINATED_UNIVERSAL_TIME_OFFSET(0,0,.BEHIND.);
#170=AXIS2_PLACEMENT_3D('placement',#249,#195,#196);
#171=AXIS2_PLACEMENT_3D('',#250,#197,#198);
#172=AXIS2_PLACEMENT_3D('',#252,#199,#200);
#173=AXIS2_PLACEMENT_3D('',#254,#201,#202);
#174=AXIS2_PLACEMENT_3D('',#256,#203,#204);
#175=AXIS2_PLACEMENT_3D('',#257,#205,#206);
#176=AXIS2_PLACEMENT_3D('',#258,#207,#208);
#177=AXIS2_PLACEMENT_3D('',#262,#210,#211);
#178=AXIS2_PLACEMENT_3D('',#263,#212,#213);
#179=AXIS2_PLACEMENT_3D('',#264,#214,#215);
#180=AXIS2_PLACEMENT_3D('',#266,#216,#217);
#181=AXIS2_PLACEMENT_3D('',#267,#218,#219);
#182=AXIS2_PLACEMENT_3D('',#269,#220,#221);
#183=AXIS2_PLACEMENT_3D('',#270,#222,#223);
#184=AXIS2_PLACEMENT_3D('',#271,#224,#225);
#185=AXIS2_PLACEMENT_3D('',#273,#226,#227);
#186=AXIS2_PLACEMENT_3D('',#274,#228,#229);
#187=AXIS2_PLACEMENT_3D('',#276,#230,#231);
#188=AXIS2_PLACEMENT_3D('',#278,#233,#234);
#189=AXIS2_PLACEMENT_3D('',#281,#236,#237);
#190=AXIS2_PLACEMENT_3D('',#282,#238,#239);
#191=AXIS2_PLACEMENT_3D('',#284,#240,#241);
#192=AXIS2_PLACEMENT_3D('',#285,#242,#243);
#193=AXIS2_PLACEMENT_3D('',#288,#245,#246);
#194=AXIS2_PLACEMENT_3D('',#289,#247,#248);
#195=DIRECTION('axis',(0.,0.,1.));
#196=DIRECTION('refdir',(1.,0.,0.));
#197=DIRECTION('center_axis',(1.,0.,0.));
#198=DIRECTION('ref_axis',(0.,0.,-1.));
#199=DIRECTION('center_axis',(-1.,0.,0.));
#200=DIRECTION('ref_axis',(0.,-1.,1.83697019872103E-16));
#201=DIRECTION('center_axis',(0.,-1.,-1.22464679914735E-16));
#202=DIRECTION('ref_axis',(0.,-1.22464679914735E-16,1.));
#203=DIRECTION('center_axis',(1.,0.,0.));
#204=DIRECTION('ref_axis',(0.,-1.,1.83697019872103E-16));
#205=DIRECTION('center_axis',(1.,0.,0.));
#206=DIRECTION('ref_axis',(0.,-1.,1.83697019872103E-16));
#207=DIRECTION('center_axis',(1.,0.,0.));
#208=DIRECTION('ref_axis',(0.,1.,0.));
#209=DIRECTION('',(-1.,0.,0.));
#210=DIRECTION('center_axis',(-1.,0.,0.));
#211=DIRECTION('ref_axis',(0.,-1.,1.83697019872103E-16));
#212=DIRECTION('center_axis',(-1.,0.,0.));
#213=DIRECTION('ref_axis',(0.,-1.,1.83697019872103E-16));
#214=DIRECTION('center_axis',(1.,0.,0.));
#215=DIRECTION('ref_axis',(0.,0.,-1.));
#216=DIRECTION('center_axis',(1.,0.,0.));
#217=DIRECTION('ref_axis',(0.,0.,-1.));
#218=DIRECTION('center_axis',(1.,0.,0.));
#219=DIRECTION('ref_axis',(0.,0.,-1.));
#220=DIRECTION('center_axis',(0.,-1.,-1.22464679914735E-16));
#221=DIRECTION('ref_axis',(0.,-1.22464679914735E-16,1.));
#222=DIRECTION('center_axis',(1.,0.,0.));
#223=DIRECTION('ref_axis',(0.,-1.,1.83697019872103E-16));
#224=DIRECTION('center_axis',(-1.,0.,0.));
#225=DIRECTION('ref_axis',(0.,0.,1.));
#226=DIRECTION('center_axis',(1.,0.,0.));
#227=DIRECTION('ref_axis',(0.,0.,-1.));
#228=DIRECTION('center_axis',(1.,0.,0.));
#229=DIRECTION('ref_axis',(0.,1.,0.));
#230=DIRECTION('center_axis',(1.,0.,0.));
#231=DIRECTION('ref_axis',(0.,0.,-1.));
#232=DIRECTION('',(-1.,0.,0.));
#233=DIRECTION('center_axis',(1.,0.,0.));
#234=DIRECTION('ref_axis',(0.,1.,0.));
#235=DIRECTION('',(-1.,0.,0.));
#236=DIRECTION('center_axis',(1.,0.,0.));
#237=DIRECTION('ref_axis',(0.,0.,-1.));
#238=DIRECTION('center_axis',(1.,0.,0.));
#239=DIRECTION('ref_axis',(0.,0.,-1.));
#240=DIRECTION('center_axis',(1.,0.,0.));
#241=DIRECTION('ref_axis',(0.,0.,-1.));
#242=DIRECTION('center_axis',(1.,0.,0.));
#243=DIRECTION('ref_axis',(0.,1.,0.));
#244=DIRECTION('',(-1.,0.,0.));
#245=DIRECTION('center_axis',(1.,0.,0.));
#246=DIRECTION('ref_axis',(0.,0.,-1.));
#247=DIRECTION('center_axis',(-1.,0.,0.));
#248=DIRECTION('ref_axis',(0.,0.,1.));
#249=CARTESIAN_POINT('',(0.,0.,0.));
#250=CARTESIAN_POINT('Origin',(80.,0.,0.));
#251=CARTESIAN_POINT('',(80.5,-9.79717439317883E-15,80.));
#252=CARTESIAN_POINT('Origin',(80.5,0.,0.));
#253=CARTESIAN_POINT('',(80.,-9.8584067331362E-15,80.5));
#254=CARTESIAN_POINT('Origin',(80.,-9.79717439317883E-15,80.));
#255=CARTESIAN_POINT('',(80.,-80.5,-9.8584067331362E-15));
#256=CARTESIAN_POINT('Origin',(80.,0.,0.));
#257=CARTESIAN_POINT('Origin',(80.,0.,0.));
#258=CARTESIAN_POINT('Origin',(0.,0.,0.));
#259=CARTESIAN_POINT('',(-80.,-80.5,-9.8584067331362E-15));
#260=CARTESIAN_POINT('',(0.,-80.5,-9.8584067331362E-15));
#261=CARTESIAN_POINT('',(-80.,-9.8584067331362E-15,80.5));
#262=CARTESIAN_POINT('Origin',(-80.,0.,0.));
#263=CARTESIAN_POINT('Origin',(-80.,0.,0.));
#264=CARTESIAN_POINT('Origin',(80.5,70.,0.));
#265=CARTESIAN_POINT('',(80.5,-70.,-8.57252759403147E-15));
#266=CARTESIAN_POINT('Origin',(80.5,0.,0.));
#267=CARTESIAN_POINT('Origin',(-80.,0.,0.));
#268=CARTESIAN_POINT('',(-80.5,-9.79717439317883E-15,80.));
#269=CARTESIAN_POINT('Origin',(-80.,-9.79717439317883E-15,80.));
#270=CARTESIAN_POINT('Origin',(-80.5,0.,0.));
#271=CARTESIAN_POINT('Origin',(-80.5,80.5,0.));
#272=CARTESIAN_POINT('',(-80.5,-70.,-8.57252759403147E-15));
#273=CARTESIAN_POINT('Origin',(-80.5,0.,0.));
#274=CARTESIAN_POINT('Origin',(-42.5,0.,0.));
#275=CARTESIAN_POINT('',(-4.50000000000001,-70.,-8.57252759403147E-15));
#276=CARTESIAN_POINT('Origin',(-4.50000000000001,0.,0.));
#277=CARTESIAN_POINT('',(-42.5,-70.,-8.57252759403147E-15));
#278=CARTESIAN_POINT('Origin',(42.5,0.,0.));
#279=CARTESIAN_POINT('',(4.49999999999998,-70.,-8.57252759403147E-15));
#280=CARTESIAN_POINT('',(42.5,-70.,-8.57252759403147E-15));
#281=CARTESIAN_POINT('Origin',(4.49999999999999,0.,0.));
#282=CARTESIAN_POINT('Origin',(4.49999999999999,65.5,0.));
#283=CARTESIAN_POINT('',(4.49999999999999,-65.5,-8.02143653441516E-15));
#284=CARTESIAN_POINT('Origin',(4.49999999999999,0.,0.));
#285=CARTESIAN_POINT('Origin',(-1.22124532708767E-14,0.,0.));
#286=CARTESIAN_POINT('',(-4.50000000000001,-65.5,-8.02143653441516E-15));
#287=CARTESIAN_POINT('',(-1.22124532708767E-14,-65.5,-8.02143653441516E-15));
#288=CARTESIAN_POINT('Origin',(-4.50000000000001,0.,0.));
#289=CARTESIAN_POINT('Origin',(-4.50000000000001,70.,0.));
#290=UNCERTAINTY_MEASURE_WITH_UNIT(LENGTH_MEASURE(0.01),#294,
'DISTANCE_ACCURACY_VALUE',
'Maximum model space distance between geometric entities at asserted c
onnectivities');
#291=UNCERTAINTY_MEASURE_WITH_UNIT(LENGTH_MEASURE(0.01),#294,
'DISTANCE_ACCURACY_VALUE',
'Maximum model space distance between geometric entities at asserted c
onnectivities');
#292=(
GEOMETRIC_REPRESENTATION_CONTEXT(3)
GLOBAL_UNCERTAINTY_ASSIGNED_CONTEXT((#290))
GLOBAL_UNIT_ASSIGNED_CONTEXT((#294,#296,#297))
REPRESENTATION_CONTEXT('','3D')
);
#293=(
GEOMETRIC_REPRESENTATION_CONTEXT(3)
GLOBAL_UNCERTAINTY_ASSIGNED_CONTEXT((#291))
GLOBAL_UNIT_ASSIGNED_CONTEXT((#294,#296,#297))
REPRESENTATION_CONTEXT('','3D')
);
#294=(
LENGTH_UNIT()
NAMED_UNIT(*)
SI_UNIT(.MILLI.,.METRE.)
);
#295=(
LENGTH_UNIT()
NAMED_UNIT(*)
SI_UNIT(.CENTI.,.METRE.)
);
#296=(
NAMED_UNIT(*)
PLANE_ANGLE_UNIT()
SI_UNIT($,.RADIAN.)
);
#297=(
NAMED_UNIT(*)
SI_UNIT($,.STERADIAN.)
SOLID_ANGLE_UNIT()
);
#298=SHAPE_DEFINITION_REPRESENTATION(#299,#300);
#299=PRODUCT_DEFINITION_SHAPE('',$,#302);
#300=SHAPE_REPRESENTATION('',(#170),#292);
#301=PRODUCT_DEFINITION_CONTEXT('part definition',#306,'design');
#302=PRODUCT_DEFINITION('SO10U-140','SO10U-140',#303,#301);
#303=PRODUCT_DEFINITION_FORMATION('0',$,#308);
#304=PRODUCT_RELATED_PRODUCT_CATEGORY('SO10U-140','SO10U-140',(#308));
#305=APPLICATION_PROTOCOL_DEFINITION('international standard',
'automotive_design',2009,#306);
#306=APPLICATION_CONTEXT(
'Core Data for Automotive Mechanical Design Process');
#307=PRODUCT_CONTEXT('part definition',#306,'mechanical');
#308=PRODUCT('SO10U-140','SO10U-140','PVC Coupling, \X\D8140, PN16',(#307));
#309=PRESENTATION_STYLE_ASSIGNMENT((#310));
#310=SURFACE_STYLE_USAGE(.BOTH.,#313);
#311=SURFACE_STYLE_RENDERING_WITH_PROPERTIES($,#317,(#312));
#312=SURFACE_STYLE_TRANSPARENT(0.);
#313=SURFACE_SIDE_STYLE('',(#314,#311));
#314=SURFACE_STYLE_FILL_AREA(#315);
#315=FILL_AREA_STYLE('',(#316));
#316=FILL_AREA_STYLE_COLOUR('',#317);
#317=COLOUR_RGB('',0.250980392156863,0.290196078431373,0.329411764705882);
ENDSEC;
END-ISO-10303-21;
