ISO-10303-21;
HEADER;
FILE_DESCRIPTION( ( 'STEP AP214' ), '1' );
FILE_NAME( 'p:/temp/worker_18/temp/exporttempdir_8_318_4rquV/format_0/70066020007(architecture400).stp', '2021-11-25T10:28:26', ( 'License CC BY-ND 4.0' ), ( 'CADENAS' ), ' ', 'PARTsolutions', ' ' );
FILE_SCHEMA( ( 'AUTOMOTIVE_DESIGN { 1 0 10303 214 1 1 1 1 }' ) );
ENDSEC;
DATA;
#1 = MECHANICAL_DESIGN_GEOMETRIC_PRESENTATION_REPRESENTATION( ' ', ( #10, #11, #12, #13, #14, #15, #16, #17, #18, #19, #20, #21, #22 ), #6 );
#2 = PRODUCT_DEFINITION_CONTEXT( '', #23, 'design' );
#3 = APPLICATION_PROTOCOL_DEFINITION( 'international standard', 'automotive_design', 2001, #23 );
#4 = PRODUCT_CATEGORY_RELATIONSHIP( 'NONE', 'NONE', #24, #25 );
#5 = SHAPE_DEFINITION_REPRESENTATION( #26, #27 );
#6 =  ( GEOMETRIC_REPRESENTATION_CONTEXT( 3 )GLOBAL_UNCERTAINTY_ASSIGNED_CONTEXT( ( #30 ) )GLOBAL_UNIT_ASSIGNED_CONTEXT( ( #32, #33, #34 ) )REPRESENTATION_CONTEXT( 'NONE', 'WORKSPACE' ) );
#10 = STYLED_ITEM( '', ( #36 ), #37 );
#11 = STYLED_ITEM( '', ( #38 ), #39 );
#12 = STYLED_ITEM( '', ( #40 ), #41 );
#13 = STYLED_ITEM( '', ( #42 ), #43 );
#14 = STYLED_ITEM( '', ( #44 ), #45 );
#15 = STYLED_ITEM( '', ( #46 ), #47 );
#16 = STYLED_ITEM( '', ( #48 ), #49 );
#17 = STYLED_ITEM( '', ( #50 ), #51 );
#18 = STYLED_ITEM( '', ( #52 ), #53 );
#19 = STYLED_ITEM( '', ( #54 ), #55 );
#20 = STYLED_ITEM( '', ( #56 ), #57 );
#21 = STYLED_ITEM( '', ( #58 ), #59 );
#22 = STYLED_ITEM( '', ( #60 ), #61 );
#23 = APPLICATION_CONTEXT( 'core data for automotive mechanical design processes' );
#24 = PRODUCT_CATEGORY( 'part', 'NONE' );
#25 = PRODUCT_RELATED_PRODUCT_CATEGORY( 'detail', ' ', ( #62 ) );
#26 = PRODUCT_DEFINITION_SHAPE( 'NONE', 'NONE', #63 );
#27 = ADVANCED_BREP_SHAPE_REPRESENTATION( '_70066020007(architecture400)', ( #64, #65 ), #6 );
#30 = UNCERTAINTY_MEASURE_WITH_UNIT( LENGTH_MEASURE( 0.00100000000000000 ), #32, '', '' );
#32 =  ( CONVERSION_BASED_UNIT( 'MILLIMETRE', #68 )LENGTH_UNIT(  )NAMED_UNIT( #71 ) );
#33 =  ( NAMED_UNIT( #73 )PLANE_ANGLE_UNIT(  )SI_UNIT( $, .RADIAN. ) );
#34 =  ( NAMED_UNIT( #73 )SI_UNIT( $, .STERADIAN. )SOLID_ANGLE_UNIT(  ) );
#36 = PRESENTATION_STYLE_ASSIGNMENT( ( #79 ) );
#37 = ADVANCED_FACE( '', ( #80, #81 ), #82, .F. );
#38 = PRESENTATION_STYLE_ASSIGNMENT( ( #83 ) );
#39 = ADVANCED_FACE( '', ( #84, #85 ), #86, .F. );
#40 = PRESENTATION_STYLE_ASSIGNMENT( ( #87 ) );
#41 = ADVANCED_FACE( '', ( #88, #89 ), #90, .T. );
#42 = PRESENTATION_STYLE_ASSIGNMENT( ( #91 ) );
#43 = ADVANCED_FACE( '', ( #92, #93 ), #94, .F. );
#44 = PRESENTATION_STYLE_ASSIGNMENT( ( #95 ) );
#45 = ADVANCED_FACE( '', ( #96, #97 ), #98, .T. );
#46 = PRESENTATION_STYLE_ASSIGNMENT( ( #99 ) );
#47 = ADVANCED_FACE( '', ( #100, #101, #102 ), #103, .T. );
#48 = PRESENTATION_STYLE_ASSIGNMENT( ( #104 ) );
#49 = ADVANCED_FACE( '', ( #105, #106, #107 ), #108, .F. );
#50 = PRESENTATION_STYLE_ASSIGNMENT( ( #109 ) );
#51 = ADVANCED_FACE( '', ( #110, #111 ), #112, .T. );
#52 = PRESENTATION_STYLE_ASSIGNMENT( ( #113 ) );
#53 = ADVANCED_FACE( '', ( #114, #115 ), #116, .T. );
#54 = PRESENTATION_STYLE_ASSIGNMENT( ( #117 ) );
#55 = ADVANCED_FACE( '', ( #118, #119 ), #120, .F. );
#56 = PRESENTATION_STYLE_ASSIGNMENT( ( #121 ) );
#57 = ADVANCED_FACE( '', ( #122, #123 ), #124, .T. );
#58 = PRESENTATION_STYLE_ASSIGNMENT( ( #125 ) );
#59 = ADVANCED_FACE( '', ( #126, #127 ), #128, .T. );
#60 = PRESENTATION_STYLE_ASSIGNMENT( ( #129 ) );
#61 = ADVANCED_FACE( '', ( #130, #131 ), #132, .T. );
#62 = PRODUCT( '_70066020007(architecture400)', '_70066020007(architecture400)', 'PART-_70066020007(architecture400)-DESC', ( #133 ) );
#63 = PRODUCT_DEFINITION( 'NONE', 'NONE', #134, #2 );
#64 = MANIFOLD_SOLID_BREP( '_70066020007(architecture400)', #135 );
#65 = AXIS2_PLACEMENT_3D( '', #136, #137, #138 );
#68 = LENGTH_MEASURE_WITH_UNIT( LENGTH_MEASURE( 1.00000000000000 ), #139 );
#71 = DIMENSIONAL_EXPONENTS( 1.00000000000000, 0.000000000000000, 0.000000000000000, 0.000000000000000, 0.000000000000000, 0.000000000000000, 0.000000000000000 );
#73 = DIMENSIONAL_EXPONENTS( 0.000000000000000, 0.000000000000000, 0.000000000000000, 0.000000000000000, 0.000000000000000, 0.000000000000000, 0.000000000000000 );
#79 = SURFACE_STYLE_USAGE( .BOTH., #140 );
#80 = FACE_BOUND( '', #141, .T. );
#81 = FACE_OUTER_BOUND( '', #142, .T. );
#82 = PLANE( '', #143 );
#83 = SURFACE_STYLE_USAGE( .BOTH., #144 );
#84 = FACE_OUTER_BOUND( '', #145, .T. );
#85 = FACE_OUTER_BOUND( '', #146, .T. );
#86 = CYLINDRICAL_SURFACE( '', #147, 72.6000000000000 );
#87 = SURFACE_STYLE_USAGE( .BOTH., #148 );
#88 = FACE_OUTER_BOUND( '', #149, .T. );
#89 = FACE_OUTER_BOUND( '', #150, .T. );
#90 = CYLINDRICAL_SURFACE( '', #151, 100.000000000000 );
#91 = SURFACE_STYLE_USAGE( .BOTH., #152 );
#92 = FACE_OUTER_BOUND( '', #153, .T. );
#93 = FACE_BOUND( '', #154, .T. );
#94 = PLANE( '', #155 );
#95 = SURFACE_STYLE_USAGE( .BOTH., #156 );
#96 = FACE_OUTER_BOUND( '', #157, .T. );
#97 = FACE_BOUND( '', #158, .T. );
#98 = CONICAL_SURFACE( '', #159, 100.000000000000, 0.785398163400000 );
#99 = SURFACE_STYLE_USAGE( .BOTH., #160 );
#100 = FACE_OUTER_BOUND( '', #161, .T. );
#101 = FACE_BOUND( '', #162, .T. );
#102 = FACE_OUTER_BOUND( '', #163, .T. );
#103 = CYLINDRICAL_SURFACE( '', #164, 113.700000000000 );
#104 = SURFACE_STYLE_USAGE( .BOTH., #165 );
#105 = FACE_OUTER_BOUND( '', #166, .T. );
#106 = FACE_OUTER_BOUND( '', #167, .T. );
#107 = FACE_BOUND( '', #168, .T. );
#108 = CYLINDRICAL_SURFACE( '', #169, 72.6000000000000 );
#109 = SURFACE_STYLE_USAGE( .BOTH., #170 );
#110 = FACE_OUTER_BOUND( '', #171, .T. );
#111 = FACE_BOUND( '', #172, .T. );
#112 = CONICAL_SURFACE( '', #173, 100.000000000000, 0.785398163400000 );
#113 = SURFACE_STYLE_USAGE( .BOTH., #174 );
#114 = FACE_OUTER_BOUND( '', #175, .T. );
#115 = FACE_OUTER_BOUND( '', #176, .T. );
#116 = CYLINDRICAL_SURFACE( '', #177, 113.700000000000 );
#117 = SURFACE_STYLE_USAGE( .BOTH., #178 );
#118 = FACE_OUTER_BOUND( '', #179, .T. );
#119 = FACE_BOUND( '', #180, .T. );
#120 = PLANE( '', #181 );
#121 = SURFACE_STYLE_USAGE( .BOTH., #182 );
#122 = FACE_BOUND( '', #183, .T. );
#123 = FACE_OUTER_BOUND( '', #184, .T. );
#124 = CONICAL_SURFACE( '', #185, 113.700000000000, 0.785398163400000 );
#125 = SURFACE_STYLE_USAGE( .BOTH., #186 );
#126 = FACE_OUTER_BOUND( '', #187, .T. );
#127 = FACE_OUTER_BOUND( '', #188, .T. );
#128 = CYLINDRICAL_SURFACE( '', #189, 100.000000000000 );
#129 = SURFACE_STYLE_USAGE( .BOTH., #190 );
#130 = FACE_OUTER_BOUND( '', #191, .T. );
#131 = FACE_OUTER_BOUND( '', #192, .T. );
#132 = CYLINDRICAL_SURFACE( '', #193, 100.000000000000 );
#133 = PRODUCT_CONTEXT( '', #23, 'mechanical' );
#134 = PRODUCT_DEFINITION_FORMATION_WITH_SPECIFIED_SOURCE( ' ', 'NONE', #62, .NOT_KNOWN. );
#135 = CLOSED_SHELL( '', ( #49, #47, #53, #45, #41, #55, #37, #59, #57, #51, #61, #43, #39 ) );
#136 = CARTESIAN_POINT( '', ( 0.000000000000000, 0.000000000000000, 0.000000000000000 ) );
#137 = DIRECTION( '', ( 0.000000000000000, 0.000000000000000, 1.00000000000000 ) );
#138 = DIRECTION( '', ( 1.00000000000000, 0.000000000000000, 0.000000000000000 ) );
#139 =  ( LENGTH_UNIT(  )NAMED_UNIT( #71 )SI_UNIT( .MILLI., .METRE. ) );
#140 = SURFACE_SIDE_STYLE( '', ( #195 ) );
#141 = EDGE_LOOP( '', ( #196 ) );
#142 = EDGE_LOOP( '', ( #197 ) );
#143 = AXIS2_PLACEMENT_3D( '', #198, #199, #200 );
#144 = SURFACE_SIDE_STYLE( '', ( #201 ) );
#145 = EDGE_LOOP( '', ( #202, #203 ) );
#146 = EDGE_LOOP( '', ( #204 ) );
#147 = AXIS2_PLACEMENT_3D( '', #205, #206, #207 );
#148 = SURFACE_SIDE_STYLE( '', ( #208 ) );
#149 = EDGE_LOOP( '', ( #209 ) );
#150 = EDGE_LOOP( '', ( #210 ) );
#151 = AXIS2_PLACEMENT_3D( '', #211, #212, #213 );
#152 = SURFACE_SIDE_STYLE( '', ( #214 ) );
#153 = EDGE_LOOP( '', ( #215 ) );
#154 = EDGE_LOOP( '', ( #216 ) );
#155 = AXIS2_PLACEMENT_3D( '', #217, #218, #219 );
#156 = SURFACE_SIDE_STYLE( '', ( #220 ) );
#157 = EDGE_LOOP( '', ( #221 ) );
#158 = EDGE_LOOP( '', ( #222 ) );
#159 = AXIS2_PLACEMENT_3D( '', #223, #224, #225 );
#160 = SURFACE_SIDE_STYLE( '', ( #226 ) );
#161 = EDGE_LOOP( '', ( #227 ) );
#162 = EDGE_LOOP( '', ( #228, #229 ) );
#163 = EDGE_LOOP( '', ( #230 ) );
#164 = AXIS2_PLACEMENT_3D( '', #231, #232, #233 );
#165 = SURFACE_SIDE_STYLE( '', ( #234 ) );
#166 = EDGE_LOOP( '', ( #235 ) );
#167 = EDGE_LOOP( '', ( #236 ) );
#168 = EDGE_LOOP( '', ( #237, #238 ) );
#169 = AXIS2_PLACEMENT_3D( '', #239, #240, #241 );
#170 = SURFACE_SIDE_STYLE( '', ( #242 ) );
#171 = EDGE_LOOP( '', ( #243 ) );
#172 = EDGE_LOOP( '', ( #244 ) );
#173 = AXIS2_PLACEMENT_3D( '', #245, #246, #247 );
#174 = SURFACE_SIDE_STYLE( '', ( #248 ) );
#175 = EDGE_LOOP( '', ( #249, #250 ) );
#176 = EDGE_LOOP( '', ( #251 ) );
#177 = AXIS2_PLACEMENT_3D( '', #252, #253, #254 );
#178 = SURFACE_SIDE_STYLE( '', ( #255 ) );
#179 = EDGE_LOOP( '', ( #256 ) );
#180 = EDGE_LOOP( '', ( #257 ) );
#181 = AXIS2_PLACEMENT_3D( '', #258, #259, #260 );
#182 = SURFACE_SIDE_STYLE( '', ( #261 ) );
#183 = EDGE_LOOP( '', ( #262 ) );
#184 = EDGE_LOOP( '', ( #263 ) );
#185 = AXIS2_PLACEMENT_3D( '', #264, #265, #266 );
#186 = SURFACE_SIDE_STYLE( '', ( #267 ) );
#187 = EDGE_LOOP( '', ( #268 ) );
#188 = EDGE_LOOP( '', ( #269 ) );
#189 = AXIS2_PLACEMENT_3D( '', #270, #271, #272 );
#190 = SURFACE_SIDE_STYLE( '', ( #273 ) );
#191 = EDGE_LOOP( '', ( #274 ) );
#192 = EDGE_LOOP( '', ( #275 ) );
#193 = AXIS2_PLACEMENT_3D( '', #276, #277, #278 );
#195 = SURFACE_STYLE_FILL_AREA( #279 );
#196 = ORIENTED_EDGE( '', *, *, #280, .F. );
#197 = ORIENTED_EDGE( '', *, *, #281, .T. );
#198 = CARTESIAN_POINT( '', ( -6.93889390390723E-15, 0.000000000000000, 100.000000000000 ) );
#199 = DIRECTION( '', ( -1.00000000000000, 0.000000000000000, 0.000000000000000 ) );
#200 = DIRECTION( '', ( 0.000000000000000, 0.000000000000000, 1.00000000000000 ) );
#201 = SURFACE_STYLE_FILL_AREA( #282 );
#202 = ORIENTED_EDGE( '', *, *, #283, .F. );
#203 = ORIENTED_EDGE( '', *, *, #284, .F. );
#204 = ORIENTED_EDGE( '', *, *, #285, .T. );
#205 = CARTESIAN_POINT( '', ( -247.500000000000, 0.000000000000000, 248.000000000000 ) );
#206 = DIRECTION( '', ( 0.000000000000000, -0.000000000000000, 1.00000000000000 ) );
#207 = DIRECTION( '', ( -1.00000000000000, 0.000000000000000, 0.000000000000000 ) );
#208 = SURFACE_STYLE_FILL_AREA( #286 );
#209 = ORIENTED_EDGE( '', *, *, #287, .F. );
#210 = ORIENTED_EDGE( '', *, *, #288, .T. );
#211 = CARTESIAN_POINT( '', ( -247.500000000000, 0.000000000000000, 0.000000000000000 ) );
#212 = DIRECTION( '', ( 0.000000000000000, -0.000000000000000, 1.00000000000000 ) );
#213 = DIRECTION( '', ( -1.00000000000000, 0.000000000000000, 0.000000000000000 ) );
#214 = SURFACE_STYLE_FILL_AREA( #289 );
#215 = ORIENTED_EDGE( '', *, *, #290, .F. );
#216 = ORIENTED_EDGE( '', *, *, #291, .F. );
#217 = CARTESIAN_POINT( '', ( -495.000000000000, 0.000000000000000, 0.000000000000000 ) );
#218 = DIRECTION( '', ( 1.00000000000000, 0.000000000000000, -0.000000000000000 ) );
#219 = DIRECTION( '', ( -0.000000000000000, 0.000000000000000, -1.00000000000000 ) );
#220 = SURFACE_STYLE_FILL_AREA( #292 );
#221 = ORIENTED_EDGE( '', *, *, #293, .F. );
#222 = ORIENTED_EDGE( '', *, *, #287, .T. );
#223 = CARTESIAN_POINT( '', ( -247.500000000000, 0.000000000000000, 132.000000000000 ) );
#224 = DIRECTION( '', ( -0.000000000000000, -0.000000000000000, -1.00000000000000 ) );
#225 = DIRECTION( '', ( -1.00000000000000, 0.000000000000000, 0.000000000000000 ) );
#226 = SURFACE_STYLE_FILL_AREA( #294 );
#227 = ORIENTED_EDGE( '', *, *, #295, .F. );
#228 = ORIENTED_EDGE( '', *, *, #296, .F. );
#229 = ORIENTED_EDGE( '', *, *, #297, .F. );
#230 = ORIENTED_EDGE( '', *, *, #298, .T. );
#231 = CARTESIAN_POINT( '', ( 0.000000000000000, 0.000000000000000, 0.000000000000000 ) );
#232 = DIRECTION( '', ( -1.00000000000000, -0.000000000000000, 0.000000000000000 ) );
#233 = DIRECTION( '', ( -0.000000000000000, 0.000000000000000, -1.00000000000000 ) );
#234 = SURFACE_STYLE_FILL_AREA( #299 );
#235 = ORIENTED_EDGE( '', *, *, #280, .T. );
#236 = ORIENTED_EDGE( '', *, *, #291, .T. );
#237 = ORIENTED_EDGE( '', *, *, #283, .T. );
#238 = ORIENTED_EDGE( '', *, *, #284, .T. );
#239 = CARTESIAN_POINT( '', ( 1.00000000000000, 0.000000000000000, 0.000000000000000 ) );
#240 = DIRECTION( '', ( 1.00000000000000, -0.000000000000000, -0.000000000000000 ) );
#241 = DIRECTION( '', ( 0.000000000000000, 0.000000000000000, 1.00000000000000 ) );
#242 = SURFACE_STYLE_FILL_AREA( #300 );
#243 = ORIENTED_EDGE( '', *, *, #298, .F. );
#244 = ORIENTED_EDGE( '', *, *, #301, .T. );
#245 = CARTESIAN_POINT( '', ( -380.000000000000, 0.000000000000000, 0.000000000000000 ) );
#246 = DIRECTION( '', ( 1.00000000000000, -0.000000000000000, -0.000000000000000 ) );
#247 = DIRECTION( '', ( -0.000000000000000, 0.000000000000000, -1.00000000000000 ) );
#248 = SURFACE_STYLE_FILL_AREA( #302 );
#249 = ORIENTED_EDGE( '', *, *, #296, .T. );
#250 = ORIENTED_EDGE( '', *, *, #297, .T. );
#251 = ORIENTED_EDGE( '', *, *, #293, .T. );
#252 = CARTESIAN_POINT( '', ( -247.500000000000, 0.000000000000000, 0.000000000000000 ) );
#253 = DIRECTION( '', ( 0.000000000000000, -0.000000000000000, 1.00000000000000 ) );
#254 = DIRECTION( '', ( -1.00000000000000, 0.000000000000000, 0.000000000000000 ) );
#255 = SURFACE_STYLE_FILL_AREA( #303 );
#256 = ORIENTED_EDGE( '', *, *, #288, .F. );
#257 = ORIENTED_EDGE( '', *, *, #285, .F. );
#258 = CARTESIAN_POINT( '', ( -247.500000000000, 0.000000000000000, 247.000000000000 ) );
#259 = DIRECTION( '', ( -0.000000000000000, 0.000000000000000, -1.00000000000000 ) );
#260 = DIRECTION( '', ( -1.00000000000000, 0.000000000000000, 0.000000000000000 ) );
#261 = SURFACE_STYLE_FILL_AREA( #304 );
#262 = ORIENTED_EDGE( '', *, *, #305, .F. );
#263 = ORIENTED_EDGE( '', *, *, #295, .T. );
#264 = CARTESIAN_POINT( '', ( -128.700000000000, 0.000000000000000, 0.000000000000000 ) );
#265 = DIRECTION( '', ( -1.00000000000000, 0.000000000000000, -0.000000000000000 ) );
#266 = DIRECTION( '', ( 0.000000000000000, 0.000000000000000, 1.00000000000000 ) );
#267 = SURFACE_STYLE_FILL_AREA( #306 );
#268 = ORIENTED_EDGE( '', *, *, #281, .F. );
#269 = ORIENTED_EDGE( '', *, *, #305, .T. );
#270 = CARTESIAN_POINT( '', ( 0.000000000000000, 0.000000000000000, 0.000000000000000 ) );
#271 = DIRECTION( '', ( -1.00000000000000, -0.000000000000000, 0.000000000000000 ) );
#272 = DIRECTION( '', ( -0.000000000000000, 0.000000000000000, -1.00000000000000 ) );
#273 = SURFACE_STYLE_FILL_AREA( #307 );
#274 = ORIENTED_EDGE( '', *, *, #301, .F. );
#275 = ORIENTED_EDGE( '', *, *, #290, .T. );
#276 = CARTESIAN_POINT( '', ( 0.000000000000000, 0.000000000000000, 0.000000000000000 ) );
#277 = DIRECTION( '', ( -1.00000000000000, -0.000000000000000, 0.000000000000000 ) );
#278 = DIRECTION( '', ( -0.000000000000000, 0.000000000000000, -1.00000000000000 ) );
#279 = FILL_AREA_STYLE( '', ( #308 ) );
#280 = EDGE_CURVE( '', #309, #309, #310, .F. );
#281 = EDGE_CURVE( '', #311, #311, #312, .T. );
#282 = FILL_AREA_STYLE( '', ( #313 ) );
#283 = EDGE_CURVE( '', #314, #315, #316, .T. );
#284 = EDGE_CURVE( '', #315, #314, #317, .F. );
#285 = EDGE_CURVE( '', #318, #318, #319, .F. );
#286 = FILL_AREA_STYLE( '', ( #320 ) );
#287 = EDGE_CURVE( '', #321, #321, #322, .T. );
#288 = EDGE_CURVE( '', #323, #323, #324, .T. );
#289 = FILL_AREA_STYLE( '', ( #325 ) );
#290 = EDGE_CURVE( '', #326, #326, #327, .T. );
#291 = EDGE_CURVE( '', #328, #328, #329, .F. );
#292 = FILL_AREA_STYLE( '', ( #330 ) );
#293 = EDGE_CURVE( '', #331, #331, #332, .T. );
#294 = FILL_AREA_STYLE( '', ( #333 ) );
#295 = EDGE_CURVE( '', #334, #334, #335, .T. );
#296 = EDGE_CURVE( '', #336, #337, #338, .T. );
#297 = EDGE_CURVE( '', #337, #336, #339, .F. );
#298 = EDGE_CURVE( '', #340, #340, #341, .T. );
#299 = FILL_AREA_STYLE( '', ( #342 ) );
#300 = FILL_AREA_STYLE( '', ( #343 ) );
#301 = EDGE_CURVE( '', #344, #344, #345, .T. );
#302 = FILL_AREA_STYLE( '', ( #346 ) );
#303 = FILL_AREA_STYLE( '', ( #347 ) );
#304 = FILL_AREA_STYLE( '', ( #348 ) );
#305 = EDGE_CURVE( '', #349, #349, #350, .T. );
#306 = FILL_AREA_STYLE( '', ( #351 ) );
#307 = FILL_AREA_STYLE( '', ( #352 ) );
#308 = FILL_AREA_STYLE_COLOUR( '', #353 );
#309 = VERTEX_POINT( '', #354 );
#310 = CIRCLE( '', #355, 72.6000000000000 );
#311 = VERTEX_POINT( '', #356 );
#312 = CIRCLE( '', #357, 100.000000000000 );
#313 = FILL_AREA_STYLE_COLOUR( '', #358 );
#314 = VERTEX_POINT( '', #359 );
#315 = VERTEX_POINT( '', #360 );
#316 = ELLIPSE( '', #361, 102.671904628300, 72.6000000000000 );
#317 = ELLIPSE( '', #362, 102.671904628300, 72.6000000000000 );
#318 = VERTEX_POINT( '', #363 );
#319 = CIRCLE( '', #364, 72.6000000000000 );
#320 = FILL_AREA_STYLE_COLOUR( '', #365 );
#321 = VERTEX_POINT( '', #366 );
#322 = CIRCLE( '', #367, 100.000000000000 );
#323 = VERTEX_POINT( '', #368 );
#324 = CIRCLE( '', #369, 100.000000000000 );
#325 = FILL_AREA_STYLE_COLOUR( '', #370 );
#326 = VERTEX_POINT( '', #371 );
#327 = CIRCLE( '', #372, 100.000000000000 );
#328 = VERTEX_POINT( '', #373 );
#329 = CIRCLE( '', #374, 72.6000000000000 );
#330 = FILL_AREA_STYLE_COLOUR( '', #375 );
#331 = VERTEX_POINT( '', #376 );
#332 = CIRCLE( '', #377, 113.700000000000 );
#333 = FILL_AREA_STYLE_COLOUR( '', #378 );
#334 = VERTEX_POINT( '', #379 );
#335 = CIRCLE( '', #380, 113.700000000000 );
#336 = VERTEX_POINT( '', #381 );
#337 = VERTEX_POINT( '', #382 );
#338 = ELLIPSE( '', #383, 160.796082041800, 113.700000000000 );
#339 = ELLIPSE( '', #384, 160.796082041800, 113.700000000000 );
#340 = VERTEX_POINT( '', #385 );
#341 = CIRCLE( '', #386, 113.700000000000 );
#342 = FILL_AREA_STYLE_COLOUR( '', #387 );
#343 = FILL_AREA_STYLE_COLOUR( '', #388 );
#344 = VERTEX_POINT( '', #389 );
#345 = CIRCLE( '', #390, 100.000000000000 );
#346 = FILL_AREA_STYLE_COLOUR( '', #391 );
#347 = FILL_AREA_STYLE_COLOUR( '', #392 );
#348 = FILL_AREA_STYLE_COLOUR( '', #393 );
#349 = VERTEX_POINT( '', #394 );
#350 = CIRCLE( '', #395, 100.000000000000 );
#351 = FILL_AREA_STYLE_COLOUR( '', #396 );
#352 = FILL_AREA_STYLE_COLOUR( '', #397 );
#353 = COLOUR_RGB( '', 0.689999997600000, 0.689999997600000, 0.689999997600000 );
#354 = CARTESIAN_POINT( '', ( -6.93889390390723E-15, 0.000000000000000, 72.6000000000000 ) );
#355 = AXIS2_PLACEMENT_3D( '', #398, #399, #400 );
#356 = CARTESIAN_POINT( '', ( -1.38777878078145E-14, 0.000000000000000, -100.000000000000 ) );
#357 = AXIS2_PLACEMENT_3D( '', #401, #402, #403 );
#358 = COLOUR_RGB( '', 0.689999997600000, 0.689999997600000, 0.689999997600000 );
#359 = CARTESIAN_POINT( '', ( -247.500000000000, -72.6000000000000, 0.000000000000000 ) );
#360 = CARTESIAN_POINT( '', ( -247.500000000000, 72.6000000000000, 0.000000000000000 ) );
#361 = AXIS2_PLACEMENT_3D( '', #404, #405, #406 );
#362 = AXIS2_PLACEMENT_3D( '', #407, #408, #409 );
#363 = CARTESIAN_POINT( '', ( -320.100000000000, 0.000000000000000, 247.000000000000 ) );
#364 = AXIS2_PLACEMENT_3D( '', #410, #411, #412 );
#365 = COLOUR_RGB( '', 0.689999997600000, 0.689999997600000, 0.689999997600000 );
#366 = CARTESIAN_POINT( '', ( -347.500000000000, 0.000000000000000, 132.000000000000 ) );
#367 = AXIS2_PLACEMENT_3D( '', #413, #414, #415 );
#368 = CARTESIAN_POINT( '', ( -347.500000000000, 0.000000000000000, 247.000000000000 ) );
#369 = AXIS2_PLACEMENT_3D( '', #416, #417, #418 );
#370 = COLOUR_RGB( '', 0.689999997600000, 0.689999997600000, 0.689999997600000 );
#371 = CARTESIAN_POINT( '', ( -495.000000000000, 0.000000000000000, -100.000000000000 ) );
#372 = AXIS2_PLACEMENT_3D( '', #419, #420, #421 );
#373 = CARTESIAN_POINT( '', ( -495.000000000000, 0.000000000000000, -72.6000000000000 ) );
#374 = AXIS2_PLACEMENT_3D( '', #422, #423, #424 );
#375 = COLOUR_RGB( '', 0.689999997600000, 0.689999997600000, 0.689999997600000 );
#376 = CARTESIAN_POINT( '', ( -361.200000000000, 0.000000000000000, 118.300000000000 ) );
#377 = AXIS2_PLACEMENT_3D( '', #425, #426, #427 );
#378 = COLOUR_RGB( '', 0.689999997600000, 0.689999997600000, 0.689999997600000 );
#379 = CARTESIAN_POINT( '', ( -128.700000000000, 0.000000000000000, -113.700000000000 ) );
#380 = AXIS2_PLACEMENT_3D( '', #428, #429, #430 );
#381 = CARTESIAN_POINT( '', ( -247.500000000000, 113.700000000000, 0.000000000000000 ) );
#382 = CARTESIAN_POINT( '', ( -247.500000000000, -113.700000000000, 0.000000000000000 ) );
#383 = AXIS2_PLACEMENT_3D( '', #431, #432, #433 );
#384 = AXIS2_PLACEMENT_3D( '', #434, #435, #436 );
#385 = CARTESIAN_POINT( '', ( -366.300000000000, 0.000000000000000, -113.700000000000 ) );
#386 = AXIS2_PLACEMENT_3D( '', #437, #438, #439 );
#387 = COLOUR_RGB( '', 0.689999997600000, 0.689999997600000, 0.689999997600000 );
#388 = COLOUR_RGB( '', 0.689999997600000, 0.689999997600000, 0.689999997600000 );
#389 = CARTESIAN_POINT( '', ( -380.000000000000, 0.000000000000000, -100.000000000000 ) );
#390 = AXIS2_PLACEMENT_3D( '', #440, #441, #442 );
#391 = COLOUR_RGB( '', 0.689999997600000, 0.689999997600000, 0.689999997600000 );
#392 = COLOUR_RGB( '', 0.689999997600000, 0.689999997600000, 0.689999997600000 );
#393 = COLOUR_RGB( '', 0.689999997600000, 0.689999997600000, 0.689999997600000 );
#394 = CARTESIAN_POINT( '', ( -115.000000000000, 0.000000000000000, -100.000000000000 ) );
#395 = AXIS2_PLACEMENT_3D( '', #443, #444, #445 );
#396 = COLOUR_RGB( '', 0.689999997600000, 0.689999997600000, 0.689999997600000 );
#397 = COLOUR_RGB( '', 0.689999997600000, 0.689999997600000, 0.689999997600000 );
#398 = CARTESIAN_POINT( '', ( -6.93889390390723E-15, 0.000000000000000, 0.000000000000000 ) );
#399 = DIRECTION( '', ( -1.00000000000000, 0.000000000000000, 0.000000000000000 ) );
#400 = DIRECTION( '', ( 0.000000000000000, 0.000000000000000, 1.00000000000000 ) );
#401 = CARTESIAN_POINT( '', ( -1.38777878078145E-14, 0.000000000000000, 0.000000000000000 ) );
#402 = DIRECTION( '', ( 1.00000000000000, 0.000000000000000, -0.000000000000000 ) );
#403 = DIRECTION( '', ( -0.000000000000000, 0.000000000000000, -1.00000000000000 ) );
#404 = CARTESIAN_POINT( '', ( -247.500000000000, 0.000000000000000, 0.000000000000000 ) );
#405 = DIRECTION( '', ( -0.707106781186547, 0.000000000000000, 0.707106781186548 ) );
#406 = DIRECTION( '', ( -0.707106781186548, 0.000000000000000, -0.707106781186547 ) );
#407 = CARTESIAN_POINT( '', ( -247.500000000000, 0.000000000000000, 0.000000000000000 ) );
#408 = DIRECTION( '', ( -0.707106781186547, 0.000000000000000, -0.707106781186548 ) );
#409 = DIRECTION( '', ( -0.707106781186548, 0.000000000000000, 0.707106781186547 ) );
#410 = CARTESIAN_POINT( '', ( -247.500000000000, 0.000000000000000, 247.000000000000 ) );
#411 = DIRECTION( '', ( -0.000000000000000, 0.000000000000000, -1.00000000000000 ) );
#412 = DIRECTION( '', ( -1.00000000000000, 0.000000000000000, 0.000000000000000 ) );
#413 = CARTESIAN_POINT( '', ( -247.500000000000, 0.000000000000000, 132.000000000000 ) );
#414 = DIRECTION( '', ( -0.000000000000000, 0.000000000000000, -1.00000000000000 ) );
#415 = DIRECTION( '', ( -1.00000000000000, 0.000000000000000, 0.000000000000000 ) );
#416 = CARTESIAN_POINT( '', ( -247.500000000000, 0.000000000000000, 247.000000000000 ) );
#417 = DIRECTION( '', ( -0.000000000000000, 0.000000000000000, -1.00000000000000 ) );
#418 = DIRECTION( '', ( -1.00000000000000, 0.000000000000000, 0.000000000000000 ) );
#419 = CARTESIAN_POINT( '', ( -495.000000000000, 0.000000000000000, 0.000000000000000 ) );
#420 = DIRECTION( '', ( 1.00000000000000, 0.000000000000000, -0.000000000000000 ) );
#421 = DIRECTION( '', ( -0.000000000000000, 0.000000000000000, -1.00000000000000 ) );
#422 = CARTESIAN_POINT( '', ( -495.000000000000, 0.000000000000000, 0.000000000000000 ) );
#423 = DIRECTION( '', ( 1.00000000000000, 0.000000000000000, -0.000000000000000 ) );
#424 = DIRECTION( '', ( -0.000000000000000, 0.000000000000000, -1.00000000000000 ) );
#425 = CARTESIAN_POINT( '', ( -247.500000000000, 0.000000000000000, 118.300000000000 ) );
#426 = DIRECTION( '', ( -0.000000000000000, 0.000000000000000, -1.00000000000000 ) );
#427 = DIRECTION( '', ( -1.00000000000000, 0.000000000000000, 0.000000000000000 ) );
#428 = CARTESIAN_POINT( '', ( -128.700000000000, 0.000000000000000, 0.000000000000000 ) );
#429 = DIRECTION( '', ( 1.00000000000000, 0.000000000000000, -0.000000000000000 ) );
#430 = DIRECTION( '', ( -0.000000000000000, 0.000000000000000, -1.00000000000000 ) );
#431 = CARTESIAN_POINT( '', ( -247.500000000000, 0.000000000000000, 0.000000000000000 ) );
#432 = DIRECTION( '', ( 0.707106781186548, 0.000000000000000, 0.707106781186548 ) );
#433 = DIRECTION( '', ( 0.707106781186548, -0.000000000000000, -0.707106781186548 ) );
#434 = CARTESIAN_POINT( '', ( -247.500000000000, 0.000000000000000, 0.000000000000000 ) );
#435 = DIRECTION( '', ( 0.707106781186548, 0.000000000000000, -0.707106781186548 ) );
#436 = DIRECTION( '', ( 0.707106781186548, 0.000000000000000, 0.707106781186548 ) );
#437 = CARTESIAN_POINT( '', ( -366.300000000000, 0.000000000000000, 0.000000000000000 ) );
#438 = DIRECTION( '', ( 1.00000000000000, 0.000000000000000, -0.000000000000000 ) );
#439 = DIRECTION( '', ( -0.000000000000000, 0.000000000000000, -1.00000000000000 ) );
#440 = CARTESIAN_POINT( '', ( -380.000000000000, 0.000000000000000, 0.000000000000000 ) );
#441 = DIRECTION( '', ( 1.00000000000000, 0.000000000000000, -0.000000000000000 ) );
#442 = DIRECTION( '', ( -0.000000000000000, 0.000000000000000, -1.00000000000000 ) );
#443 = CARTESIAN_POINT( '', ( -115.000000000000, 0.000000000000000, 0.000000000000000 ) );
#444 = DIRECTION( '', ( 1.00000000000000, 0.000000000000000, -0.000000000000000 ) );
#445 = DIRECTION( '', ( -0.000000000000000, 0.000000000000000, -1.00000000000000 ) );
ENDSEC;
END-ISO-10303-21;
