ISO-10303-21;
HEADER;
/* Generated by software containing ST-Developer
 * from STEP Tools, Inc. (www.steptools.com) 
 */

FILE_DESCRIPTION(
/* description */ ('PE100 Equal Tee for socket welding, \X\D832, PN16'),

/* implementation_level */ '2;1');

FILE_NAME(
/* name */ 
'C:\\Users\\TAEvg\\Dropbox\\COAB Solutions\\Customers\\13001) GPA Flow
system AS\\Catalog\\PE100-SDR11\\TIE\\TIE-RC-032.ipt.stp',
/* time_stamp */ '2023-01-10T16:16:59+01:00',
/* author */ ('COAB Solutions'),
/* organization */ ('GPA Flowsystem'),
/* preprocessor_version */ 'ST-DEVELOPER v18.1',
/* originating_system */ 'Autodesk Inventor 2021',
/* authorisation */ '');

FILE_SCHEMA (('AUTOMOTIVE_DESIGN { 1 0 10303 214 3 1 1 }'));
ENDSEC;

DATA;
#10=MECHANICAL_DESIGN_GEOMETRIC_PRESENTATION_REPRESENTATION('',(#13),#543);
#11=SHAPE_REPRESENTATION_RELATIONSHIP('SRR','None',#550,#12);
#12=ADVANCED_BREP_SHAPE_REPRESENTATION('',(#14),#542);
#13=STYLED_ITEM('',(#559),#14);
#14=MANIFOLD_SOLID_BREP('Solid2',#288);
#15=FACE_BOUND('',#86,.T.);
#16=FACE_BOUND('',#89,.T.);
#17=FACE_BOUND('',#93,.T.);
#18=FACE_BOUND('',#96,.T.);
#19=FACE_BOUND('',#99,.T.);
#20=FACE_BOUND('',#101,.T.);
#21=FACE_BOUND('',#105,.T.);
#22=PLANE('',#318);
#23=PLANE('',#324);
#24=PLANE('',#330);
#25=PLANE('',#334);
#26=PLANE('',#339);
#27=PLANE('',#341);
#28=PLANE('',#350);
#29=ELLIPSE('',#313,30.4055915910215,21.5);
#30=ELLIPSE('',#314,30.4055915910215,21.5);
#31=ELLIPSE('',#316,30.4055915910215,21.5);
#32=ELLIPSE('',#317,30.4055915910215,21.5);
#33=ELLIPSE('',#344,20.3646752981726,14.4);
#34=ELLIPSE('',#345,20.3646752981726,14.4);
#35=ELLIPSE('',#346,20.3646752981726,14.4);
#36=ELLIPSE('',#347,20.3646752981726,14.4);
#37=LINE('',#467,#47);
#38=LINE('',#473,#48);
#39=LINE('',#491,#49);
#40=LINE('',#501,#50);
#41=LINE('',#510,#51);
#42=LINE('',#520,#52);
#43=LINE('',#530,#53);
#44=LINE('',#536,#54);
#45=LINE('',#538,#55);
#46=LINE('',#539,#56);
#47=VECTOR('',#366,21.5);
#48=VECTOR('',#371,21.5);
#49=VECTOR('',#396,21.5);
#50=VECTOR('',#409,16.);
#51=VECTOR('',#420,16.);
#52=VECTOR('',#433,14.4);
#53=VECTOR('',#444,16.);
#54=VECTOR('',#453,14.4);
#55=VECTOR('',#456,14.4);
#56=VECTOR('',#457,14.4);
#57=CYLINDRICAL_SURFACE('',#312,21.5);
#58=CYLINDRICAL_SURFACE('',#326,21.5);
#59=CYLINDRICAL_SURFACE('',#332,16.);
#60=CYLINDRICAL_SURFACE('',#336,16.);
#61=CYLINDRICAL_SURFACE('',#343,14.4);
#62=CYLINDRICAL_SURFACE('',#348,16.);
#63=CYLINDRICAL_SURFACE('',#352,14.4);
#64=CYLINDRICAL_SURFACE('',#353,14.4);
#65=FACE_OUTER_BOUND('',#83,.T.);
#66=FACE_OUTER_BOUND('',#84,.T.);
#67=FACE_OUTER_BOUND('',#85,.T.);
#68=FACE_OUTER_BOUND('',#87,.T.);
#69=FACE_OUTER_BOUND('',#88,.T.);
#70=FACE_OUTER_BOUND('',#90,.T.);
#71=FACE_OUTER_BOUND('',#91,.T.);
#72=FACE_OUTER_BOUND('',#92,.T.);
#73=FACE_OUTER_BOUND('',#94,.T.);
#74=FACE_OUTER_BOUND('',#95,.T.);
#75=FACE_OUTER_BOUND('',#97,.T.);
#76=FACE_OUTER_BOUND('',#98,.T.);
#77=FACE_OUTER_BOUND('',#100,.T.);
#78=FACE_OUTER_BOUND('',#102,.T.);
#79=FACE_OUTER_BOUND('',#103,.T.);
#80=FACE_OUTER_BOUND('',#104,.T.);
#81=FACE_OUTER_BOUND('',#106,.T.);
#82=FACE_OUTER_BOUND('',#107,.T.);
#83=EDGE_LOOP('',(#191,#192,#193,#194));
#84=EDGE_LOOP('',(#195,#196,#197,#198,#199,#200,#201,#202,#203,#204));
#85=EDGE_LOOP('',(#205));
#86=EDGE_LOOP('',(#206));
#87=EDGE_LOOP('',(#207,#208,#209,#210));
#88=EDGE_LOOP('',(#211));
#89=EDGE_LOOP('',(#212));
#90=EDGE_LOOP('',(#213,#214,#215,#216,#217,#218,#219));
#91=EDGE_LOOP('',(#220,#221,#222,#223));
#92=EDGE_LOOP('',(#224));
#93=EDGE_LOOP('',(#225));
#94=EDGE_LOOP('',(#226,#227,#228,#229));
#95=EDGE_LOOP('',(#230));
#96=EDGE_LOOP('',(#231));
#97=EDGE_LOOP('',(#232,#233,#234,#235));
#98=EDGE_LOOP('',(#236));
#99=EDGE_LOOP('',(#237));
#100=EDGE_LOOP('',(#238));
#101=EDGE_LOOP('',(#239));
#102=EDGE_LOOP('',(#240,#241,#242,#243,#244,#245,#246));
#103=EDGE_LOOP('',(#247,#248,#249,#250));
#104=EDGE_LOOP('',(#251));
#105=EDGE_LOOP('',(#252));
#106=EDGE_LOOP('',(#253,#254,#255,#256));
#107=EDGE_LOOP('',(#257,#258,#259,#260,#261,#262,#263,#264,#265,#266));
#108=CIRCLE('',#309,20.5);
#109=CIRCLE('',#310,1.);
#110=CIRCLE('',#311,21.5);
#111=CIRCLE('',#315,21.5);
#112=CIRCLE('',#319,16.);
#113=CIRCLE('',#321,21.5);
#114=CIRCLE('',#322,1.);
#115=CIRCLE('',#323,20.5);
#116=CIRCLE('',#325,14.4);
#117=CIRCLE('',#328,1.);
#118=CIRCLE('',#329,20.5);
#119=CIRCLE('',#331,16.);
#120=CIRCLE('',#333,16.);
#121=CIRCLE('',#335,14.4);
#122=CIRCLE('',#337,16.);
#123=CIRCLE('',#338,16.);
#124=CIRCLE('',#340,14.4);
#125=CIRCLE('',#342,14.4);
#126=CIRCLE('',#349,16.);
#127=CIRCLE('',#351,14.4);
#128=VERTEX_POINT('',#460);
#129=VERTEX_POINT('',#462);
#130=VERTEX_POINT('',#466);
#131=VERTEX_POINT('',#468);
#132=VERTEX_POINT('',#470);
#133=VERTEX_POINT('',#472);
#134=VERTEX_POINT('',#475);
#135=VERTEX_POINT('',#479);
#136=VERTEX_POINT('',#482);
#137=VERTEX_POINT('',#484);
#138=VERTEX_POINT('',#488);
#139=VERTEX_POINT('',#493);
#140=VERTEX_POINT('',#497);
#141=VERTEX_POINT('',#500);
#142=VERTEX_POINT('',#504);
#143=VERTEX_POINT('',#507);
#144=VERTEX_POINT('',#509);
#145=VERTEX_POINT('',#513);
#146=VERTEX_POINT('',#516);
#147=VERTEX_POINT('',#519);
#148=VERTEX_POINT('',#521);
#149=VERTEX_POINT('',#523);
#150=VERTEX_POINT('',#525);
#151=VERTEX_POINT('',#529);
#152=VERTEX_POINT('',#533);
#153=EDGE_CURVE('',#128,#128,#108,.T.);
#154=EDGE_CURVE('',#128,#129,#109,.T.);
#155=EDGE_CURVE('',#129,#129,#110,.T.);
#156=EDGE_CURVE('',#129,#130,#37,.T.);
#157=EDGE_CURVE('',#130,#131,#29,.T.);
#158=EDGE_CURVE('',#131,#132,#30,.T.);
#159=EDGE_CURVE('',#132,#133,#38,.T.);
#160=EDGE_CURVE('',#133,#133,#111,.T.);
#161=EDGE_CURVE('',#132,#134,#31,.T.);
#162=EDGE_CURVE('',#134,#130,#32,.T.);
#163=EDGE_CURVE('',#135,#135,#112,.T.);
#164=EDGE_CURVE('',#136,#136,#113,.T.);
#165=EDGE_CURVE('',#136,#137,#114,.T.);
#166=EDGE_CURVE('',#137,#137,#115,.T.);
#167=EDGE_CURVE('',#138,#138,#116,.T.);
#168=EDGE_CURVE('',#130,#136,#39,.T.);
#169=EDGE_CURVE('',#133,#139,#117,.T.);
#170=EDGE_CURVE('',#139,#139,#118,.T.);
#171=EDGE_CURVE('',#140,#140,#119,.T.);
#172=EDGE_CURVE('',#135,#141,#40,.T.);
#173=EDGE_CURVE('',#141,#141,#120,.T.);
#174=EDGE_CURVE('',#142,#142,#121,.T.);
#175=EDGE_CURVE('',#143,#143,#122,.T.);
#176=EDGE_CURVE('',#143,#144,#41,.T.);
#177=EDGE_CURVE('',#144,#144,#123,.T.);
#178=EDGE_CURVE('',#145,#145,#124,.T.);
#179=EDGE_CURVE('',#146,#146,#125,.T.);
#180=EDGE_CURVE('',#146,#147,#42,.T.);
#181=EDGE_CURVE('',#147,#148,#33,.T.);
#182=EDGE_CURVE('',#148,#149,#34,.T.);
#183=EDGE_CURVE('',#149,#150,#35,.T.);
#184=EDGE_CURVE('',#150,#147,#36,.T.);
#185=EDGE_CURVE('',#140,#151,#43,.T.);
#186=EDGE_CURVE('',#151,#151,#126,.T.);
#187=EDGE_CURVE('',#152,#152,#127,.T.);
#188=EDGE_CURVE('',#138,#145,#44,.T.);
#189=EDGE_CURVE('',#142,#149,#45,.T.);
#190=EDGE_CURVE('',#147,#152,#46,.T.);
#191=ORIENTED_EDGE('',*,*,#153,.T.);
#192=ORIENTED_EDGE('',*,*,#154,.T.);
#193=ORIENTED_EDGE('',*,*,#155,.T.);
#194=ORIENTED_EDGE('',*,*,#154,.F.);
#195=ORIENTED_EDGE('',*,*,#155,.F.);
#196=ORIENTED_EDGE('',*,*,#156,.T.);
#197=ORIENTED_EDGE('',*,*,#157,.T.);
#198=ORIENTED_EDGE('',*,*,#158,.T.);
#199=ORIENTED_EDGE('',*,*,#159,.T.);
#200=ORIENTED_EDGE('',*,*,#160,.F.);
#201=ORIENTED_EDGE('',*,*,#159,.F.);
#202=ORIENTED_EDGE('',*,*,#161,.T.);
#203=ORIENTED_EDGE('',*,*,#162,.T.);
#204=ORIENTED_EDGE('',*,*,#156,.F.);
#205=ORIENTED_EDGE('',*,*,#153,.F.);
#206=ORIENTED_EDGE('',*,*,#163,.T.);
#207=ORIENTED_EDGE('',*,*,#164,.T.);
#208=ORIENTED_EDGE('',*,*,#165,.T.);
#209=ORIENTED_EDGE('',*,*,#166,.T.);
#210=ORIENTED_EDGE('',*,*,#165,.F.);
#211=ORIENTED_EDGE('',*,*,#166,.F.);
#212=ORIENTED_EDGE('',*,*,#167,.T.);
#213=ORIENTED_EDGE('',*,*,#162,.F.);
#214=ORIENTED_EDGE('',*,*,#161,.F.);
#215=ORIENTED_EDGE('',*,*,#158,.F.);
#216=ORIENTED_EDGE('',*,*,#157,.F.);
#217=ORIENTED_EDGE('',*,*,#168,.T.);
#218=ORIENTED_EDGE('',*,*,#164,.F.);
#219=ORIENTED_EDGE('',*,*,#168,.F.);
#220=ORIENTED_EDGE('',*,*,#160,.T.);
#221=ORIENTED_EDGE('',*,*,#169,.T.);
#222=ORIENTED_EDGE('',*,*,#170,.T.);
#223=ORIENTED_EDGE('',*,*,#169,.F.);
#224=ORIENTED_EDGE('',*,*,#170,.F.);
#225=ORIENTED_EDGE('',*,*,#171,.T.);
#226=ORIENTED_EDGE('',*,*,#163,.F.);
#227=ORIENTED_EDGE('',*,*,#172,.T.);
#228=ORIENTED_EDGE('',*,*,#173,.T.);
#229=ORIENTED_EDGE('',*,*,#172,.F.);
#230=ORIENTED_EDGE('',*,*,#173,.F.);
#231=ORIENTED_EDGE('',*,*,#174,.F.);
#232=ORIENTED_EDGE('',*,*,#175,.T.);
#233=ORIENTED_EDGE('',*,*,#176,.T.);
#234=ORIENTED_EDGE('',*,*,#177,.T.);
#235=ORIENTED_EDGE('',*,*,#176,.F.);
#236=ORIENTED_EDGE('',*,*,#175,.F.);
#237=ORIENTED_EDGE('',*,*,#178,.F.);
#238=ORIENTED_EDGE('',*,*,#177,.F.);
#239=ORIENTED_EDGE('',*,*,#179,.F.);
#240=ORIENTED_EDGE('',*,*,#179,.T.);
#241=ORIENTED_EDGE('',*,*,#180,.T.);
#242=ORIENTED_EDGE('',*,*,#181,.T.);
#243=ORIENTED_EDGE('',*,*,#182,.T.);
#244=ORIENTED_EDGE('',*,*,#183,.T.);
#245=ORIENTED_EDGE('',*,*,#184,.T.);
#246=ORIENTED_EDGE('',*,*,#180,.F.);
#247=ORIENTED_EDGE('',*,*,#171,.F.);
#248=ORIENTED_EDGE('',*,*,#185,.T.);
#249=ORIENTED_EDGE('',*,*,#186,.T.);
#250=ORIENTED_EDGE('',*,*,#185,.F.);
#251=ORIENTED_EDGE('',*,*,#186,.F.);
#252=ORIENTED_EDGE('',*,*,#187,.F.);
#253=ORIENTED_EDGE('',*,*,#167,.F.);
#254=ORIENTED_EDGE('',*,*,#188,.T.);
#255=ORIENTED_EDGE('',*,*,#178,.T.);
#256=ORIENTED_EDGE('',*,*,#188,.F.);
#257=ORIENTED_EDGE('',*,*,#174,.T.);
#258=ORIENTED_EDGE('',*,*,#189,.T.);
#259=ORIENTED_EDGE('',*,*,#182,.F.);
#260=ORIENTED_EDGE('',*,*,#181,.F.);
#261=ORIENTED_EDGE('',*,*,#190,.T.);
#262=ORIENTED_EDGE('',*,*,#187,.T.);
#263=ORIENTED_EDGE('',*,*,#190,.F.);
#264=ORIENTED_EDGE('',*,*,#184,.F.);
#265=ORIENTED_EDGE('',*,*,#183,.F.);
#266=ORIENTED_EDGE('',*,*,#189,.F.);
#267=TOROIDAL_SURFACE('',#308,20.5,1.);
#268=TOROIDAL_SURFACE('',#320,20.5,1.);
#269=TOROIDAL_SURFACE('',#327,20.5,1.);
#270=ADVANCED_FACE('',(#65),#267,.T.);
#271=ADVANCED_FACE('',(#66),#57,.T.);
#272=ADVANCED_FACE('',(#67,#15),#22,.T.);
#273=ADVANCED_FACE('',(#68),#268,.T.);
#274=ADVANCED_FACE('',(#69,#16),#23,.T.);
#275=ADVANCED_FACE('',(#70),#58,.T.);
#276=ADVANCED_FACE('',(#71),#269,.T.);
#277=ADVANCED_FACE('',(#72,#17),#24,.T.);
#278=ADVANCED_FACE('',(#73),#59,.F.);
#279=ADVANCED_FACE('',(#74,#18),#25,.T.);
#280=ADVANCED_FACE('',(#75),#60,.F.);
#281=ADVANCED_FACE('',(#76,#19),#26,.F.);
#282=ADVANCED_FACE('',(#77,#20),#27,.T.);
#283=ADVANCED_FACE('',(#78),#61,.F.);
#284=ADVANCED_FACE('',(#79),#62,.F.);
#285=ADVANCED_FACE('',(#80,#21),#28,.T.);
#286=ADVANCED_FACE('',(#81),#63,.F.);
#287=ADVANCED_FACE('',(#82),#64,.F.);
#288=CLOSED_SHELL('',(#270,#271,#272,#273,#274,#275,#276,#277,#278,#279,
#280,#281,#282,#283,#284,#285,#286,#287));
#289=DERIVED_UNIT_ELEMENT(#291,1.);
#290=DERIVED_UNIT_ELEMENT(#545,-3.);
#291=(
MASS_UNIT()
NAMED_UNIT(*)
SI_UNIT($,.GRAM.)
);
#292=DERIVED_UNIT((#289,#290));
#293=MEASURE_REPRESENTATION_ITEM('density measure',
POSITIVE_RATIO_MEASURE(1.),#292);
#294=PROPERTY_DEFINITION_REPRESENTATION(#299,#296);
#295=PROPERTY_DEFINITION_REPRESENTATION(#300,#297);
#296=REPRESENTATION('material name',(#298),#542);
#297=REPRESENTATION('density',(#293),#542);
#298=DESCRIPTIVE_REPRESENTATION_ITEM('PE','PE');
#299=PROPERTY_DEFINITION('material property','material name',#552);
#300=PROPERTY_DEFINITION('material property','density of part',#552);
#301=DATE_TIME_ROLE('creation_date');
#302=APPLIED_DATE_AND_TIME_ASSIGNMENT(#303,#301,(#552));
#303=DATE_AND_TIME(#304,#305);
#304=CALENDAR_DATE(2021,19,10);
#305=LOCAL_TIME(0,0,0.,#306);
#306=COORDINATED_UNIVERSAL_TIME_OFFSET(0,0,.BEHIND.);
#307=AXIS2_PLACEMENT_3D('placement',#458,#354,#355);
#308=AXIS2_PLACEMENT_3D('',#459,#356,#357);
#309=AXIS2_PLACEMENT_3D('',#461,#358,#359);
#310=AXIS2_PLACEMENT_3D('',#463,#360,#361);
#311=AXIS2_PLACEMENT_3D('',#464,#362,#363);
#312=AXIS2_PLACEMENT_3D('',#465,#364,#365);
#313=AXIS2_PLACEMENT_3D('',#469,#367,#368);
#314=AXIS2_PLACEMENT_3D('',#471,#369,#370);
#315=AXIS2_PLACEMENT_3D('',#474,#372,#373);
#316=AXIS2_PLACEMENT_3D('',#476,#374,#375);
#317=AXIS2_PLACEMENT_3D('',#477,#376,#377);
#318=AXIS2_PLACEMENT_3D('',#478,#378,#379);
#319=AXIS2_PLACEMENT_3D('',#480,#380,#381);
#320=AXIS2_PLACEMENT_3D('',#481,#382,#383);
#321=AXIS2_PLACEMENT_3D('',#483,#384,#385);
#322=AXIS2_PLACEMENT_3D('',#485,#386,#387);
#323=AXIS2_PLACEMENT_3D('',#486,#388,#389);
#324=AXIS2_PLACEMENT_3D('',#487,#390,#391);
#325=AXIS2_PLACEMENT_3D('',#489,#392,#393);
#326=AXIS2_PLACEMENT_3D('',#490,#394,#395);
#327=AXIS2_PLACEMENT_3D('',#492,#397,#398);
#328=AXIS2_PLACEMENT_3D('',#494,#399,#400);
#329=AXIS2_PLACEMENT_3D('',#495,#401,#402);
#330=AXIS2_PLACEMENT_3D('',#496,#403,#404);
#331=AXIS2_PLACEMENT_3D('',#498,#405,#406);
#332=AXIS2_PLACEMENT_3D('',#499,#407,#408);
#333=AXIS2_PLACEMENT_3D('',#502,#410,#411);
#334=AXIS2_PLACEMENT_3D('',#503,#412,#413);
#335=AXIS2_PLACEMENT_3D('',#505,#414,#415);
#336=AXIS2_PLACEMENT_3D('',#506,#416,#417);
#337=AXIS2_PLACEMENT_3D('',#508,#418,#419);
#338=AXIS2_PLACEMENT_3D('',#511,#421,#422);
#339=AXIS2_PLACEMENT_3D('',#512,#423,#424);
#340=AXIS2_PLACEMENT_3D('',#514,#425,#426);
#341=AXIS2_PLACEMENT_3D('',#515,#427,#428);
#342=AXIS2_PLACEMENT_3D('',#517,#429,#430);
#343=AXIS2_PLACEMENT_3D('',#518,#431,#432);
#344=AXIS2_PLACEMENT_3D('',#522,#434,#435);
#345=AXIS2_PLACEMENT_3D('',#524,#436,#437);
#346=AXIS2_PLACEMENT_3D('',#526,#438,#439);
#347=AXIS2_PLACEMENT_3D('',#527,#440,#441);
#348=AXIS2_PLACEMENT_3D('',#528,#442,#443);
#349=AXIS2_PLACEMENT_3D('',#531,#445,#446);
#350=AXIS2_PLACEMENT_3D('',#532,#447,#448);
#351=AXIS2_PLACEMENT_3D('',#534,#449,#450);
#352=AXIS2_PLACEMENT_3D('',#535,#451,#452);
#353=AXIS2_PLACEMENT_3D('',#537,#454,#455);
#354=DIRECTION('axis',(0.,0.,1.));
#355=DIRECTION('refdir',(1.,0.,0.));
#356=DIRECTION('center_axis',(-1.,0.,-1.24034733525316E-32));
#357=DIRECTION('ref_axis',(0.,0.,1.));
#358=DIRECTION('center_axis',(1.,0.,1.24034733525316E-32));
#359=DIRECTION('ref_axis',(1.24034733525316E-32,1.22464679914735E-16,-1.));
#360=DIRECTION('center_axis',(-1.51898739394874E-48,-1.,1.22464679914735E-16));
#361=DIRECTION('ref_axis',(0.,-1.22464679914735E-16,-1.));
#362=DIRECTION('center_axis',(-1.,0.,-1.24034733525316E-32));
#363=DIRECTION('ref_axis',(0.,1.22464679914735E-16,-1.));
#364=DIRECTION('center_axis',(-1.,0.,-1.24034733525316E-32));
#365=DIRECTION('ref_axis',(-1.24034733525316E-32,0.,1.));
#366=DIRECTION('',(1.,0.,1.24034733525316E-32));
#367=DIRECTION('center_axis',(-0.707106781186547,0.,0.707106781186548));
#368=DIRECTION('ref_axis',(0.707106781186548,0.,0.707106781186547));
#369=DIRECTION('center_axis',(0.707106781186548,0.,0.707106781186548));
#370=DIRECTION('ref_axis',(0.707106781186547,0.,-0.707106781186548));
#371=DIRECTION('',(1.,0.,1.24034733525316E-32));
#372=DIRECTION('center_axis',(1.,0.,1.24034733525316E-32));
#373=DIRECTION('ref_axis',(0.,1.22464679914735E-16,-1.));
#374=DIRECTION('center_axis',(0.707106781186548,0.,0.707106781186548));
#375=DIRECTION('ref_axis',(0.707106781186547,0.,-0.707106781186548));
#376=DIRECTION('center_axis',(-0.707106781186547,0.,0.707106781186548));
#377=DIRECTION('ref_axis',(0.707106781186548,0.,0.707106781186547));
#378=DIRECTION('center_axis',(-1.,0.,-1.24034733525316E-32));
#379=DIRECTION('ref_axis',(-1.24034733525316E-32,0.,1.));
#380=DIRECTION('center_axis',(1.,0.,1.24034733525316E-32));
#381=DIRECTION('ref_axis',(-1.22464679914735E-16,0.,1.));
#382=DIRECTION('center_axis',(1.22464679914735E-16,0.,1.));
#383=DIRECTION('ref_axis',(1.,0.,0.));
#384=DIRECTION('center_axis',(-1.22464679914735E-16,0.,-1.));
#385=DIRECTION('ref_axis',(-1.,1.22464679914735E-16,1.22640915510918E-16));
#386=DIRECTION('center_axis',(1.22464679914735E-16,-1.,-1.49975978266186E-32));
#387=DIRECTION('ref_axis',(-1.,-1.22464679914735E-16,2.06553120860494E-16));
#388=DIRECTION('center_axis',(1.22464679914735E-16,0.,1.));
#389=DIRECTION('ref_axis',(-1.,1.22464679914735E-16,1.22464679914735E-16));
#390=DIRECTION('center_axis',(-1.22464679914735E-16,0.,-1.));
#391=DIRECTION('ref_axis',(-1.,0.,1.22464679914735E-16));
#392=DIRECTION('center_axis',(1.22464679914735E-16,0.,1.));
#393=DIRECTION('ref_axis',(-1.,0.,1.20349379363161E-16));
#394=DIRECTION('center_axis',(1.22464679914735E-16,0.,1.));
#395=DIRECTION('ref_axis',(1.,0.,-1.03276560430247E-16));
#396=DIRECTION('',(-1.22464679914735E-16,0.,-1.));
#397=DIRECTION('center_axis',(-1.,0.,-1.24034733525316E-32));
#398=DIRECTION('ref_axis',(0.,0.,1.));
#399=DIRECTION('center_axis',(-1.51898739394874E-48,-1.,1.22464679914735E-16));
#400=DIRECTION('ref_axis',(0.,-1.22464679914735E-16,-1.));
#401=DIRECTION('center_axis',(-1.,0.,-1.24034733525316E-32));
#402=DIRECTION('ref_axis',(1.24034733525316E-32,1.22464679914735E-16,-1.));
#403=DIRECTION('center_axis',(1.,0.,1.24034733525316E-32));
#404=DIRECTION('ref_axis',(1.24034733525316E-32,0.,-1.));
#405=DIRECTION('center_axis',(-1.,0.,-1.24034733525316E-32));
#406=DIRECTION('ref_axis',(0.,0.,-1.));
#407=DIRECTION('center_axis',(1.,0.,1.22464679914735E-16));
#408=DIRECTION('ref_axis',(-1.22464679914735E-16,0.,1.));
#409=DIRECTION('',(1.,0.,1.22464679914735E-16));
#410=DIRECTION('center_axis',(1.,0.,1.22464679914735E-16));
#411=DIRECTION('ref_axis',(-1.22464679914735E-16,0.,1.));
#412=DIRECTION('center_axis',(-1.,0.,-1.22464679914735E-16));
#413=DIRECTION('ref_axis',(-1.22464679914735E-16,0.,1.));
#414=DIRECTION('center_axis',(-1.,0.,-1.22464679914735E-16));
#415=DIRECTION('ref_axis',(-1.24034733525316E-32,0.,1.));
#416=DIRECTION('center_axis',(-6.12323399573677E-17,0.,1.));
#417=DIRECTION('ref_axis',(-1.,0.,-6.12323399573677E-17));
#418=DIRECTION('center_axis',(6.12323399573677E-17,0.,-1.));
#419=DIRECTION('ref_axis',(-1.,0.,-6.12323399573677E-17));
#420=DIRECTION('',(-6.12323399573677E-17,0.,1.));
#421=DIRECTION('center_axis',(-6.12323399573677E-17,0.,1.));
#422=DIRECTION('ref_axis',(-1.,0.,-6.12323399573677E-17));
#423=DIRECTION('center_axis',(6.12323399573677E-17,0.,-1.));
#424=DIRECTION('ref_axis',(-1.,0.,-6.12323399573677E-17));
#425=DIRECTION('center_axis',(-6.12323399573677E-17,0.,1.));
#426=DIRECTION('ref_axis',(-1.,0.,1.20349379363161E-16));
#427=DIRECTION('center_axis',(6.12323399573677E-17,0.,-1.));
#428=DIRECTION('ref_axis',(-1.,0.,-6.12323399573677E-17));
#429=DIRECTION('center_axis',(6.12323399573677E-17,0.,-1.));
#430=DIRECTION('ref_axis',(-1.,0.,1.20349379363161E-16));
#431=DIRECTION('center_axis',(1.20349379363161E-16,0.,1.));
#432=DIRECTION('ref_axis',(-1.,0.,1.20349379363161E-16));
#433=DIRECTION('',(1.20349379363161E-16,0.,1.));
#434=DIRECTION('center_axis',(0.707106781186548,0.,0.707106781186547));
#435=DIRECTION('ref_axis',(0.707106781186547,0.,-0.707106781186548));
#436=DIRECTION('center_axis',(-0.707106781186548,0.,0.707106781186547));
#437=DIRECTION('ref_axis',(-0.707106781186547,0.,-0.707106781186548));
#438=DIRECTION('center_axis',(-0.707106781186548,0.,0.707106781186547));
#439=DIRECTION('ref_axis',(-0.707106781186547,0.,-0.707106781186548));
#440=DIRECTION('center_axis',(0.707106781186548,0.,0.707106781186547));
#441=DIRECTION('ref_axis',(0.707106781186547,0.,-0.707106781186548));
#442=DIRECTION('center_axis',(-1.,0.,0.));
#443=DIRECTION('ref_axis',(0.,0.,-1.));
#444=DIRECTION('',(-1.,0.,0.));
#445=DIRECTION('center_axis',(-1.,0.,-1.24034733525316E-32));
#446=DIRECTION('ref_axis',(1.24034733525316E-32,0.,-1.));
#447=DIRECTION('center_axis',(1.,0.,1.24034733525316E-32));
#448=DIRECTION('ref_axis',(1.24034733525316E-32,0.,-1.));
#449=DIRECTION('center_axis',(1.,0.,1.24034733525316E-32));
#450=DIRECTION('ref_axis',(-1.24034733525316E-32,0.,1.));
#451=DIRECTION('center_axis',(1.20349379363161E-16,0.,1.));
#452=DIRECTION('ref_axis',(-1.,0.,1.20349379363161E-16));
#453=DIRECTION('',(1.20349379363161E-16,0.,1.));
#454=DIRECTION('center_axis',(-1.,0.,-1.24034733525316E-32));
#455=DIRECTION('ref_axis',(-1.24034733525316E-32,0.,1.));
#456=DIRECTION('',(1.,0.,1.24034733525316E-32));
#457=DIRECTION('',(1.,0.,1.24034733525316E-32));
#458=CARTESIAN_POINT('',(0.,0.,0.));
#459=CARTESIAN_POINT('Origin',(-38.75,0.,1.24034733525316E-32));
#460=CARTESIAN_POINT('',(-39.75,-2.51052593825207E-15,-20.5));
#461=CARTESIAN_POINT('Origin',(-39.75,0.,-1.3684555315672E-47));
#462=CARTESIAN_POINT('',(-38.75,-2.63299061816681E-15,-21.5));
#463=CARTESIAN_POINT('Origin',(-38.75,-2.51052593825207E-15,-20.5));
#464=CARTESIAN_POINT('Origin',(-38.75,0.,1.24034733525316E-32));
#465=CARTESIAN_POINT('Origin',(-4.44089209850063E-15,0.,4.93038065763132E-31));
#466=CARTESIAN_POINT('',(-21.5,-2.63299061816681E-15,-21.5));
#467=CARTESIAN_POINT('',(-4.44089209850063E-15,-2.63299061816681E-15,-21.5));
#468=CARTESIAN_POINT('',(6.03797489094623E-47,-21.5,-7.39438662352939E-63));
#469=CARTESIAN_POINT('Origin',(0.,0.,0.));
#470=CARTESIAN_POINT('',(21.5,-2.63299061816681E-15,-21.5));
#471=CARTESIAN_POINT('Origin',(0.,0.,0.));
#472=CARTESIAN_POINT('',(38.75,-2.63299061816681E-15,-21.5));
#473=CARTESIAN_POINT('',(-4.44089209850063E-15,-2.63299061816681E-15,-21.5));
#474=CARTESIAN_POINT('Origin',(38.75,0.,9.73672658173733E-31));
#475=CARTESIAN_POINT('',(6.03797489094623E-47,21.5,-7.39438662352939E-63));
#476=CARTESIAN_POINT('Origin',(0.,0.,0.));
#477=CARTESIAN_POINT('Origin',(0.,0.,0.));
#478=CARTESIAN_POINT('Origin',(-39.75,0.,14.4));
#479=CARTESIAN_POINT('',(-39.75,1.95943487863577E-15,-16.));
#480=CARTESIAN_POINT('Origin',(-39.75,0.,-4.86797102661073E-15));
#481=CARTESIAN_POINT('Origin',(-4.77612251667468E-15,0.,-39.));
#482=CARTESIAN_POINT('',(-21.5,-2.63299061816681E-15,-39.));
#483=CARTESIAN_POINT('Origin',(-4.77612251667468E-15,0.,-39.));
#484=CARTESIAN_POINT('',(-20.5,-2.51052593825207E-15,-40.));
#485=CARTESIAN_POINT('Origin',(-20.5,-2.51052593825207E-15,-39.));
#486=CARTESIAN_POINT('Origin',(-4.89858719658941E-15,0.,-40.));
#487=CARTESIAN_POINT('Origin',(21.5,0.,-40.));
#488=CARTESIAN_POINT('',(14.4,1.76349139077219E-15,-40.));
#489=CARTESIAN_POINT('Origin',(-4.89858719658941E-15,0.,-40.));
#490=CARTESIAN_POINT('Origin',(-2.44929359829471E-15,0.,-20.));
#491=CARTESIAN_POINT('',(-21.5,-2.63299061816681E-15,-20.));
#492=CARTESIAN_POINT('Origin',(38.75,0.,9.73672658173733E-31));
#493=CARTESIAN_POINT('',(39.75,-2.51052593825207E-15,-20.5));
#494=CARTESIAN_POINT('Origin',(38.75,-2.51052593825207E-15,-20.5));
#495=CARTESIAN_POINT('Origin',(39.75,0.,9.86076131526265E-31));
#496=CARTESIAN_POINT('Origin',(39.75,0.,21.5));
#497=CARTESIAN_POINT('',(39.75,1.95943487863577E-15,16.));
#498=CARTESIAN_POINT('Origin',(39.75,0.,9.86076131526265E-31));
#499=CARTESIAN_POINT('Origin',(-39.75,0.,-4.86797102661073E-15));
#500=CARTESIAN_POINT('',(-20.25,1.95943487863577E-15,-16.));
#501=CARTESIAN_POINT('',(-39.75,1.95943487863577E-15,-16.));
#502=CARTESIAN_POINT('Origin',(-20.25,0.,-2.47990976827339E-15));
#503=CARTESIAN_POINT('Origin',(-20.25,0.,-2.47990976827339E-15));
#504=CARTESIAN_POINT('',(-20.25,-1.76349139077219E-15,-14.4));
#505=CARTESIAN_POINT('Origin',(-20.25,0.,2.41867730374367E-31));
#506=CARTESIAN_POINT('Origin',(2.43398551330537E-15,0.,-39.75));
#507=CARTESIAN_POINT('',(16.,1.95943487863577E-15,-39.75));
#508=CARTESIAN_POINT('Origin',(2.43398551330537E-15,0.,-39.75));
#509=CARTESIAN_POINT('',(16.,1.95943487863577E-15,-20.25));
#510=CARTESIAN_POINT('',(16.,1.95943487863577E-15,-39.75));
#511=CARTESIAN_POINT('Origin',(1.2399548841367E-15,0.,-20.25));
#512=CARTESIAN_POINT('Origin',(2.43398551330536E-15,0.,-39.75));
#513=CARTESIAN_POINT('',(14.4,1.76349139077219E-15,-39.75));
#514=CARTESIAN_POINT('Origin',(-4.86849985174862E-15,0.,-39.75));
#515=CARTESIAN_POINT('Origin',(1.23995488413669E-15,0.,-20.25));
#516=CARTESIAN_POINT('',(14.4,1.76349139077219E-15,-20.25));
#517=CARTESIAN_POINT('Origin',(-2.52168695416699E-15,0.,-20.25));
#518=CARTESIAN_POINT('Origin',(-4.89858719658941E-15,0.,-40.));
#519=CARTESIAN_POINT('',(14.4,1.76349139077219E-15,-14.4));
#520=CARTESIAN_POINT('',(14.4,1.76349139077219E-15,-40.));
#521=CARTESIAN_POINT('',(-8.46120220629892E-17,14.4,4.44089209850063E-15));
#522=CARTESIAN_POINT('Origin',(0.,0.,9.86076131526265E-31));
#523=CARTESIAN_POINT('',(-14.4,-1.76349139077219E-15,-14.4));
#524=CARTESIAN_POINT('Origin',(0.,0.,9.86076131526265E-31));
#525=CARTESIAN_POINT('',(-8.46120220629892E-17,-14.4,4.44089209850063E-15));
#526=CARTESIAN_POINT('Origin',(0.,0.,9.86076131526265E-31));
#527=CARTESIAN_POINT('Origin',(0.,0.,9.86076131526265E-31));
#528=CARTESIAN_POINT('Origin',(39.75,0.,9.86076131526265E-31));
#529=CARTESIAN_POINT('',(20.25,1.95943487863577E-15,16.));
#530=CARTESIAN_POINT('',(39.75,1.95943487863577E-15,16.));
#531=CARTESIAN_POINT('Origin',(20.25,0.,9.86076131526265E-31));
#532=CARTESIAN_POINT('Origin',(20.25,0.,1.51704017632366E-94));
#533=CARTESIAN_POINT('',(20.25,1.76349139077219E-15,-14.4));
#534=CARTESIAN_POINT('Origin',(20.25,0.,7.44208401151898E-31));
#535=CARTESIAN_POINT('Origin',(-4.89858719658941E-15,0.,-40.));
#536=CARTESIAN_POINT('',(14.4,1.76349139077219E-15,-40.));
#537=CARTESIAN_POINT('Origin',(0.,0.,4.93038065763132E-31));
#538=CARTESIAN_POINT('',(1.78610016276455E-31,-1.76349139077219E-15,-14.4));
#539=CARTESIAN_POINT('',(1.78610016276455E-31,-1.76349139077219E-15,-14.4));
#540=UNCERTAINTY_MEASURE_WITH_UNIT(LENGTH_MEASURE(0.01),#544,
'DISTANCE_ACCURACY_VALUE',
'Maximum model space distance between geometric entities at asserted c
onnectivities');
#541=UNCERTAINTY_MEASURE_WITH_UNIT(LENGTH_MEASURE(0.01),#544,
'DISTANCE_ACCURACY_VALUE',
'Maximum model space distance between geometric entities at asserted c
onnectivities');
#542=(
GEOMETRIC_REPRESENTATION_CONTEXT(3)
GLOBAL_UNCERTAINTY_ASSIGNED_CONTEXT((#540))
GLOBAL_UNIT_ASSIGNED_CONTEXT((#544,#546,#547))
REPRESENTATION_CONTEXT('','3D')
);
#543=(
GEOMETRIC_REPRESENTATION_CONTEXT(3)
GLOBAL_UNCERTAINTY_ASSIGNED_CONTEXT((#541))
GLOBAL_UNIT_ASSIGNED_CONTEXT((#544,#546,#547))
REPRESENTATION_CONTEXT('','3D')
);
#544=(
LENGTH_UNIT()
NAMED_UNIT(*)
SI_UNIT(.MILLI.,.METRE.)
);
#545=(
LENGTH_UNIT()
NAMED_UNIT(*)
SI_UNIT(.CENTI.,.METRE.)
);
#546=(
NAMED_UNIT(*)
PLANE_ANGLE_UNIT()
SI_UNIT($,.RADIAN.)
);
#547=(
NAMED_UNIT(*)
SI_UNIT($,.STERADIAN.)
SOLID_ANGLE_UNIT()
);
#548=SHAPE_DEFINITION_REPRESENTATION(#549,#550);
#549=PRODUCT_DEFINITION_SHAPE('',$,#552);
#550=SHAPE_REPRESENTATION('',(#307),#542);
#551=PRODUCT_DEFINITION_CONTEXT('part definition',#556,'design');
#552=PRODUCT_DEFINITION('TIE-RC-032','TIE-RC-032',#553,#551);
#553=PRODUCT_DEFINITION_FORMATION('0',$,#558);
#554=PRODUCT_RELATED_PRODUCT_CATEGORY('TIE-RC-032','TIE-RC-032',(#558));
#555=APPLICATION_PROTOCOL_DEFINITION('international standard',
'automotive_design',2009,#556);
#556=APPLICATION_CONTEXT(
'Core Data for Automotive Mechanical Design Process');
#557=PRODUCT_CONTEXT('part definition',#556,'mechanical');
#558=PRODUCT('TIE-RC-032','TIE-RC-032',
'PE100 Equal Tee for socket welding, \X\D832, PN16',(#557));
#559=PRESENTATION_STYLE_ASSIGNMENT((#560));
#560=SURFACE_STYLE_USAGE(.BOTH.,#563);
#561=SURFACE_STYLE_RENDERING_WITH_PROPERTIES($,#567,(#562));
#562=SURFACE_STYLE_TRANSPARENT(0.);
#563=SURFACE_SIDE_STYLE('',(#564,#561));
#564=SURFACE_STYLE_FILL_AREA(#565);
#565=FILL_AREA_STYLE('',(#566));
#566=FILL_AREA_STYLE_COLOUR('',#567);
#567=COLOUR_RGB('',0.109803921568627,0.109803921568627,0.129411764705882);
ENDSEC;
END-ISO-10303-21;
