ISO-10303-21;
HEADER;
/* Generated by software containing ST-Developer
 * from STEP Tools, Inc. (www.steptools.com) 
 */

FILE_DESCRIPTION(
/* description */ ('PE100 Equal Tee for socket welding, \X\D890, PN16'),

/* implementation_level */ '2;1');

FILE_NAME(
/* name */ 
'C:\\Users\\TAEvg\\Dropbox\\COAB Solutions\\Customers\\13001) GPA Flow
system AS\\Catalog\\PE100-SDR11\\TIE\\TIE-RC-090.ipt.stp',
/* time_stamp */ '2023-01-10T16:17:09+01:00',
/* author */ ('COAB Solutions'),
/* organization */ ('GPA Flowsystem'),
/* preprocessor_version */ 'ST-DEVELOPER v18.1',
/* originating_system */ 'Autodesk Inventor 2021',
/* authorisation */ '');

FILE_SCHEMA (('AUTOMOTIVE_DESIGN { 1 0 10303 214 3 1 1 }'));
ENDSEC;

DATA;
#10=MECHANICAL_DESIGN_GEOMETRIC_PRESENTATION_REPRESENTATION('',(#13),#498);
#11=SHAPE_REPRESENTATION_RELATIONSHIP('SRR','None',#505,#12);
#12=ADVANCED_BREP_SHAPE_REPRESENTATION('',(#14),#497);
#13=STYLED_ITEM('',(#514),#14);
#14=MANIFOLD_SOLID_BREP('Solid2',#263);
#15=FACE_BOUND('',#79,.T.);
#16=FACE_BOUND('',#82,.T.);
#17=FACE_BOUND('',#86,.T.);
#18=FACE_BOUND('',#89,.T.);
#19=FACE_BOUND('',#92,.T.);
#20=FACE_BOUND('',#95,.T.);
#21=PLANE('',#293);
#22=PLANE('',#299);
#23=PLANE('',#305);
#24=PLANE('',#309);
#25=PLANE('',#313);
#26=PLANE('',#317);
#27=ELLIPSE('',#288,80.6101730552664,57.);
#28=ELLIPSE('',#289,80.6101730552664,57.);
#29=ELLIPSE('',#291,80.6101730552664,57.);
#30=ELLIPSE('',#292,80.6101730552664,57.);
#31=ELLIPSE('',#320,60.6697618258058,42.9);
#32=ELLIPSE('',#321,60.6697618258058,42.9);
#33=ELLIPSE('',#322,60.6697618258058,42.9);
#34=ELLIPSE('',#323,60.6697618258058,42.9);
#35=LINE('',#429,#44);
#36=LINE('',#435,#45);
#37=LINE('',#453,#46);
#38=LINE('',#463,#47);
#39=LINE('',#470,#48);
#40=LINE('',#477,#49);
#41=LINE('',#484,#50);
#42=LINE('',#493,#51);
#43=LINE('',#494,#52);
#44=VECTOR('',#337,57.);
#45=VECTOR('',#342,57.);
#46=VECTOR('',#367,57.);
#47=VECTOR('',#380,45.);
#48=VECTOR('',#389,45.);
#49=VECTOR('',#398,45.);
#50=VECTOR('',#407,42.9);
#51=VECTOR('',#418,42.9);
#52=VECTOR('',#419,42.9);
#53=CYLINDRICAL_SURFACE('',#287,57.);
#54=CYLINDRICAL_SURFACE('',#301,57.);
#55=CYLINDRICAL_SURFACE('',#307,45.);
#56=CYLINDRICAL_SURFACE('',#311,45.);
#57=CYLINDRICAL_SURFACE('',#315,45.);
#58=CYLINDRICAL_SURFACE('',#319,42.9);
#59=CYLINDRICAL_SURFACE('',#324,42.9);
#60=FACE_OUTER_BOUND('',#76,.T.);
#61=FACE_OUTER_BOUND('',#77,.T.);
#62=FACE_OUTER_BOUND('',#78,.T.);
#63=FACE_OUTER_BOUND('',#80,.T.);
#64=FACE_OUTER_BOUND('',#81,.T.);
#65=FACE_OUTER_BOUND('',#83,.T.);
#66=FACE_OUTER_BOUND('',#84,.T.);
#67=FACE_OUTER_BOUND('',#85,.T.);
#68=FACE_OUTER_BOUND('',#87,.T.);
#69=FACE_OUTER_BOUND('',#88,.T.);
#70=FACE_OUTER_BOUND('',#90,.T.);
#71=FACE_OUTER_BOUND('',#91,.T.);
#72=FACE_OUTER_BOUND('',#93,.T.);
#73=FACE_OUTER_BOUND('',#94,.T.);
#74=FACE_OUTER_BOUND('',#96,.T.);
#75=FACE_OUTER_BOUND('',#97,.T.);
#76=EDGE_LOOP('',(#174,#175,#176,#177));
#77=EDGE_LOOP('',(#178,#179,#180,#181,#182,#183,#184,#185,#186,#187));
#78=EDGE_LOOP('',(#188));
#79=EDGE_LOOP('',(#189));
#80=EDGE_LOOP('',(#190,#191,#192,#193));
#81=EDGE_LOOP('',(#194));
#82=EDGE_LOOP('',(#195));
#83=EDGE_LOOP('',(#196,#197,#198,#199,#200,#201,#202));
#84=EDGE_LOOP('',(#203,#204,#205,#206));
#85=EDGE_LOOP('',(#207));
#86=EDGE_LOOP('',(#208));
#87=EDGE_LOOP('',(#209,#210,#211,#212));
#88=EDGE_LOOP('',(#213));
#89=EDGE_LOOP('',(#214));
#90=EDGE_LOOP('',(#215,#216,#217,#218));
#91=EDGE_LOOP('',(#219));
#92=EDGE_LOOP('',(#220));
#93=EDGE_LOOP('',(#221,#222,#223,#224));
#94=EDGE_LOOP('',(#225));
#95=EDGE_LOOP('',(#226));
#96=EDGE_LOOP('',(#227,#228,#229,#230,#231,#232,#233));
#97=EDGE_LOOP('',(#234,#235,#236,#237,#238,#239,#240,#241,#242,#243));
#98=CIRCLE('',#284,56.);
#99=CIRCLE('',#285,1.);
#100=CIRCLE('',#286,57.);
#101=CIRCLE('',#290,57.);
#102=CIRCLE('',#294,45.);
#103=CIRCLE('',#296,57.);
#104=CIRCLE('',#297,1.);
#105=CIRCLE('',#298,56.);
#106=CIRCLE('',#300,45.);
#107=CIRCLE('',#303,1.);
#108=CIRCLE('',#304,56.);
#109=CIRCLE('',#306,45.);
#110=CIRCLE('',#308,45.);
#111=CIRCLE('',#310,42.9);
#112=CIRCLE('',#312,45.);
#113=CIRCLE('',#314,42.9);
#114=CIRCLE('',#316,45.);
#115=CIRCLE('',#318,42.9);
#116=VERTEX_POINT('',#422);
#117=VERTEX_POINT('',#424);
#118=VERTEX_POINT('',#428);
#119=VERTEX_POINT('',#430);
#120=VERTEX_POINT('',#432);
#121=VERTEX_POINT('',#434);
#122=VERTEX_POINT('',#437);
#123=VERTEX_POINT('',#441);
#124=VERTEX_POINT('',#444);
#125=VERTEX_POINT('',#446);
#126=VERTEX_POINT('',#450);
#127=VERTEX_POINT('',#455);
#128=VERTEX_POINT('',#459);
#129=VERTEX_POINT('',#462);
#130=VERTEX_POINT('',#466);
#131=VERTEX_POINT('',#469);
#132=VERTEX_POINT('',#473);
#133=VERTEX_POINT('',#476);
#134=VERTEX_POINT('',#480);
#135=VERTEX_POINT('',#483);
#136=VERTEX_POINT('',#485);
#137=VERTEX_POINT('',#487);
#138=VERTEX_POINT('',#489);
#139=EDGE_CURVE('',#116,#116,#98,.T.);
#140=EDGE_CURVE('',#116,#117,#99,.T.);
#141=EDGE_CURVE('',#117,#117,#100,.T.);
#142=EDGE_CURVE('',#117,#118,#35,.T.);
#143=EDGE_CURVE('',#118,#119,#27,.T.);
#144=EDGE_CURVE('',#119,#120,#28,.T.);
#145=EDGE_CURVE('',#120,#121,#36,.T.);
#146=EDGE_CURVE('',#121,#121,#101,.T.);
#147=EDGE_CURVE('',#120,#122,#29,.T.);
#148=EDGE_CURVE('',#122,#118,#30,.T.);
#149=EDGE_CURVE('',#123,#123,#102,.T.);
#150=EDGE_CURVE('',#124,#124,#103,.T.);
#151=EDGE_CURVE('',#124,#125,#104,.T.);
#152=EDGE_CURVE('',#125,#125,#105,.T.);
#153=EDGE_CURVE('',#126,#126,#106,.T.);
#154=EDGE_CURVE('',#118,#124,#37,.T.);
#155=EDGE_CURVE('',#121,#127,#107,.T.);
#156=EDGE_CURVE('',#127,#127,#108,.T.);
#157=EDGE_CURVE('',#128,#128,#109,.T.);
#158=EDGE_CURVE('',#123,#129,#38,.T.);
#159=EDGE_CURVE('',#129,#129,#110,.T.);
#160=EDGE_CURVE('',#130,#130,#111,.T.);
#161=EDGE_CURVE('',#126,#131,#39,.T.);
#162=EDGE_CURVE('',#131,#131,#112,.T.);
#163=EDGE_CURVE('',#132,#132,#113,.T.);
#164=EDGE_CURVE('',#128,#133,#40,.T.);
#165=EDGE_CURVE('',#133,#133,#114,.T.);
#166=EDGE_CURVE('',#134,#134,#115,.T.);
#167=EDGE_CURVE('',#132,#135,#41,.T.);
#168=EDGE_CURVE('',#135,#136,#31,.T.);
#169=EDGE_CURVE('',#136,#137,#32,.T.);
#170=EDGE_CURVE('',#137,#138,#33,.T.);
#171=EDGE_CURVE('',#138,#135,#34,.T.);
#172=EDGE_CURVE('',#130,#137,#42,.T.);
#173=EDGE_CURVE('',#135,#134,#43,.T.);
#174=ORIENTED_EDGE('',*,*,#139,.T.);
#175=ORIENTED_EDGE('',*,*,#140,.T.);
#176=ORIENTED_EDGE('',*,*,#141,.T.);
#177=ORIENTED_EDGE('',*,*,#140,.F.);
#178=ORIENTED_EDGE('',*,*,#141,.F.);
#179=ORIENTED_EDGE('',*,*,#142,.T.);
#180=ORIENTED_EDGE('',*,*,#143,.T.);
#181=ORIENTED_EDGE('',*,*,#144,.T.);
#182=ORIENTED_EDGE('',*,*,#145,.T.);
#183=ORIENTED_EDGE('',*,*,#146,.F.);
#184=ORIENTED_EDGE('',*,*,#145,.F.);
#185=ORIENTED_EDGE('',*,*,#147,.T.);
#186=ORIENTED_EDGE('',*,*,#148,.T.);
#187=ORIENTED_EDGE('',*,*,#142,.F.);
#188=ORIENTED_EDGE('',*,*,#139,.F.);
#189=ORIENTED_EDGE('',*,*,#149,.T.);
#190=ORIENTED_EDGE('',*,*,#150,.T.);
#191=ORIENTED_EDGE('',*,*,#151,.T.);
#192=ORIENTED_EDGE('',*,*,#152,.T.);
#193=ORIENTED_EDGE('',*,*,#151,.F.);
#194=ORIENTED_EDGE('',*,*,#152,.F.);
#195=ORIENTED_EDGE('',*,*,#153,.T.);
#196=ORIENTED_EDGE('',*,*,#148,.F.);
#197=ORIENTED_EDGE('',*,*,#147,.F.);
#198=ORIENTED_EDGE('',*,*,#144,.F.);
#199=ORIENTED_EDGE('',*,*,#143,.F.);
#200=ORIENTED_EDGE('',*,*,#154,.T.);
#201=ORIENTED_EDGE('',*,*,#150,.F.);
#202=ORIENTED_EDGE('',*,*,#154,.F.);
#203=ORIENTED_EDGE('',*,*,#146,.T.);
#204=ORIENTED_EDGE('',*,*,#155,.T.);
#205=ORIENTED_EDGE('',*,*,#156,.T.);
#206=ORIENTED_EDGE('',*,*,#155,.F.);
#207=ORIENTED_EDGE('',*,*,#156,.F.);
#208=ORIENTED_EDGE('',*,*,#157,.T.);
#209=ORIENTED_EDGE('',*,*,#149,.F.);
#210=ORIENTED_EDGE('',*,*,#158,.T.);
#211=ORIENTED_EDGE('',*,*,#159,.T.);
#212=ORIENTED_EDGE('',*,*,#158,.F.);
#213=ORIENTED_EDGE('',*,*,#159,.F.);
#214=ORIENTED_EDGE('',*,*,#160,.F.);
#215=ORIENTED_EDGE('',*,*,#153,.F.);
#216=ORIENTED_EDGE('',*,*,#161,.T.);
#217=ORIENTED_EDGE('',*,*,#162,.T.);
#218=ORIENTED_EDGE('',*,*,#161,.F.);
#219=ORIENTED_EDGE('',*,*,#162,.F.);
#220=ORIENTED_EDGE('',*,*,#163,.F.);
#221=ORIENTED_EDGE('',*,*,#157,.F.);
#222=ORIENTED_EDGE('',*,*,#164,.T.);
#223=ORIENTED_EDGE('',*,*,#165,.T.);
#224=ORIENTED_EDGE('',*,*,#164,.F.);
#225=ORIENTED_EDGE('',*,*,#165,.F.);
#226=ORIENTED_EDGE('',*,*,#166,.F.);
#227=ORIENTED_EDGE('',*,*,#163,.T.);
#228=ORIENTED_EDGE('',*,*,#167,.T.);
#229=ORIENTED_EDGE('',*,*,#168,.T.);
#230=ORIENTED_EDGE('',*,*,#169,.T.);
#231=ORIENTED_EDGE('',*,*,#170,.T.);
#232=ORIENTED_EDGE('',*,*,#171,.T.);
#233=ORIENTED_EDGE('',*,*,#167,.F.);
#234=ORIENTED_EDGE('',*,*,#160,.T.);
#235=ORIENTED_EDGE('',*,*,#172,.T.);
#236=ORIENTED_EDGE('',*,*,#169,.F.);
#237=ORIENTED_EDGE('',*,*,#168,.F.);
#238=ORIENTED_EDGE('',*,*,#173,.T.);
#239=ORIENTED_EDGE('',*,*,#166,.T.);
#240=ORIENTED_EDGE('',*,*,#173,.F.);
#241=ORIENTED_EDGE('',*,*,#171,.F.);
#242=ORIENTED_EDGE('',*,*,#170,.F.);
#243=ORIENTED_EDGE('',*,*,#172,.F.);
#244=TOROIDAL_SURFACE('',#283,56.,1.);
#245=TOROIDAL_SURFACE('',#295,56.,1.);
#246=TOROIDAL_SURFACE('',#302,56.,1.);
#247=ADVANCED_FACE('',(#60),#244,.T.);
#248=ADVANCED_FACE('',(#61),#53,.T.);
#249=ADVANCED_FACE('',(#62,#15),#21,.T.);
#250=ADVANCED_FACE('',(#63),#245,.T.);
#251=ADVANCED_FACE('',(#64,#16),#22,.T.);
#252=ADVANCED_FACE('',(#65),#54,.T.);
#253=ADVANCED_FACE('',(#66),#246,.T.);
#254=ADVANCED_FACE('',(#67,#17),#23,.T.);
#255=ADVANCED_FACE('',(#68),#55,.F.);
#256=ADVANCED_FACE('',(#69,#18),#24,.T.);
#257=ADVANCED_FACE('',(#70),#56,.F.);
#258=ADVANCED_FACE('',(#71,#19),#25,.T.);
#259=ADVANCED_FACE('',(#72),#57,.F.);
#260=ADVANCED_FACE('',(#73,#20),#26,.T.);
#261=ADVANCED_FACE('',(#74),#58,.F.);
#262=ADVANCED_FACE('',(#75),#59,.F.);
#263=CLOSED_SHELL('',(#247,#248,#249,#250,#251,#252,#253,#254,#255,#256,
#257,#258,#259,#260,#261,#262));
#264=DERIVED_UNIT_ELEMENT(#266,1.);
#265=DERIVED_UNIT_ELEMENT(#500,-3.);
#266=(
MASS_UNIT()
NAMED_UNIT(*)
SI_UNIT($,.GRAM.)
);
#267=DERIVED_UNIT((#264,#265));
#268=MEASURE_REPRESENTATION_ITEM('density measure',
POSITIVE_RATIO_MEASURE(1.),#267);
#269=PROPERTY_DEFINITION_REPRESENTATION(#274,#271);
#270=PROPERTY_DEFINITION_REPRESENTATION(#275,#272);
#271=REPRESENTATION('material name',(#273),#497);
#272=REPRESENTATION('density',(#268),#497);
#273=DESCRIPTIVE_REPRESENTATION_ITEM('PE','PE');
#274=PROPERTY_DEFINITION('material property','material name',#507);
#275=PROPERTY_DEFINITION('material property','density of part',#507);
#276=DATE_TIME_ROLE('creation_date');
#277=APPLIED_DATE_AND_TIME_ASSIGNMENT(#278,#276,(#507));
#278=DATE_AND_TIME(#279,#280);
#279=CALENDAR_DATE(2021,19,10);
#280=LOCAL_TIME(0,0,0.,#281);
#281=COORDINATED_UNIVERSAL_TIME_OFFSET(0,0,.BEHIND.);
#282=AXIS2_PLACEMENT_3D('placement',#420,#325,#326);
#283=AXIS2_PLACEMENT_3D('',#421,#327,#328);
#284=AXIS2_PLACEMENT_3D('',#423,#329,#330);
#285=AXIS2_PLACEMENT_3D('',#425,#331,#332);
#286=AXIS2_PLACEMENT_3D('',#426,#333,#334);
#287=AXIS2_PLACEMENT_3D('',#427,#335,#336);
#288=AXIS2_PLACEMENT_3D('',#431,#338,#339);
#289=AXIS2_PLACEMENT_3D('',#433,#340,#341);
#290=AXIS2_PLACEMENT_3D('',#436,#343,#344);
#291=AXIS2_PLACEMENT_3D('',#438,#345,#346);
#292=AXIS2_PLACEMENT_3D('',#439,#347,#348);
#293=AXIS2_PLACEMENT_3D('',#440,#349,#350);
#294=AXIS2_PLACEMENT_3D('',#442,#351,#352);
#295=AXIS2_PLACEMENT_3D('',#443,#353,#354);
#296=AXIS2_PLACEMENT_3D('',#445,#355,#356);
#297=AXIS2_PLACEMENT_3D('',#447,#357,#358);
#298=AXIS2_PLACEMENT_3D('',#448,#359,#360);
#299=AXIS2_PLACEMENT_3D('',#449,#361,#362);
#300=AXIS2_PLACEMENT_3D('',#451,#363,#364);
#301=AXIS2_PLACEMENT_3D('',#452,#365,#366);
#302=AXIS2_PLACEMENT_3D('',#454,#368,#369);
#303=AXIS2_PLACEMENT_3D('',#456,#370,#371);
#304=AXIS2_PLACEMENT_3D('',#457,#372,#373);
#305=AXIS2_PLACEMENT_3D('',#458,#374,#375);
#306=AXIS2_PLACEMENT_3D('',#460,#376,#377);
#307=AXIS2_PLACEMENT_3D('',#461,#378,#379);
#308=AXIS2_PLACEMENT_3D('',#464,#381,#382);
#309=AXIS2_PLACEMENT_3D('',#465,#383,#384);
#310=AXIS2_PLACEMENT_3D('',#467,#385,#386);
#311=AXIS2_PLACEMENT_3D('',#468,#387,#388);
#312=AXIS2_PLACEMENT_3D('',#471,#390,#391);
#313=AXIS2_PLACEMENT_3D('',#472,#392,#393);
#314=AXIS2_PLACEMENT_3D('',#474,#394,#395);
#315=AXIS2_PLACEMENT_3D('',#475,#396,#397);
#316=AXIS2_PLACEMENT_3D('',#478,#399,#400);
#317=AXIS2_PLACEMENT_3D('',#479,#401,#402);
#318=AXIS2_PLACEMENT_3D('',#481,#403,#404);
#319=AXIS2_PLACEMENT_3D('',#482,#405,#406);
#320=AXIS2_PLACEMENT_3D('',#486,#408,#409);
#321=AXIS2_PLACEMENT_3D('',#488,#410,#411);
#322=AXIS2_PLACEMENT_3D('',#490,#412,#413);
#323=AXIS2_PLACEMENT_3D('',#491,#414,#415);
#324=AXIS2_PLACEMENT_3D('',#492,#416,#417);
#325=DIRECTION('axis',(0.,0.,1.));
#326=DIRECTION('refdir',(1.,0.,0.));
#327=DIRECTION('center_axis',(-1.,0.,-1.2133584968581E-17));
#328=DIRECTION('ref_axis',(0.,0.,1.));
#329=DIRECTION('center_axis',(1.,0.,1.2133584968581E-17));
#330=DIRECTION('ref_axis',(1.21335849685809E-17,1.22464679914735E-16,-1.));
#331=DIRECTION('center_axis',(-1.48593559939551E-33,-1.,1.22464679914735E-16));
#332=DIRECTION('ref_axis',(0.,-1.22464679914735E-16,-1.));
#333=DIRECTION('center_axis',(-1.,0.,-1.2133584968581E-17));
#334=DIRECTION('ref_axis',(1.21734980770302E-17,1.22464679914735E-16,-1.));
#335=DIRECTION('center_axis',(-1.,0.,-1.2133584968581E-17));
#336=DIRECTION('ref_axis',(-1.2133584968581E-17,0.,1.));
#337=DIRECTION('',(1.,0.,1.2133584968581E-17));
#338=DIRECTION('center_axis',(-0.707106781186547,0.,0.707106781186548));
#339=DIRECTION('ref_axis',(0.707106781186548,0.,0.707106781186547));
#340=DIRECTION('center_axis',(0.707106781186548,0.,0.707106781186548));
#341=DIRECTION('ref_axis',(0.707106781186548,0.,-0.707106781186548));
#342=DIRECTION('',(1.,0.,1.2133584968581E-17));
#343=DIRECTION('center_axis',(1.,0.,1.2133584968581E-17));
#344=DIRECTION('ref_axis',(1.21734980770302E-17,1.22464679914735E-16,-1.));
#345=DIRECTION('center_axis',(0.707106781186548,0.,0.707106781186548));
#346=DIRECTION('ref_axis',(0.707106781186548,0.,-0.707106781186548));
#347=DIRECTION('center_axis',(-0.707106781186547,0.,0.707106781186548));
#348=DIRECTION('ref_axis',(0.707106781186548,0.,0.707106781186547));
#349=DIRECTION('center_axis',(-1.,0.,-1.2133584968581E-17));
#350=DIRECTION('ref_axis',(-1.2133584968581E-17,0.,1.));
#351=DIRECTION('center_axis',(1.,0.,1.2133584968581E-17));
#352=DIRECTION('ref_axis',(-1.22464679914735E-16,0.,1.));
#353=DIRECTION('center_axis',(1.22464679914735E-16,0.,1.));
#354=DIRECTION('ref_axis',(1.,0.,0.));
#355=DIRECTION('center_axis',(-1.22464679914735E-16,0.,-1.));
#356=DIRECTION('ref_axis',(-1.,1.22464679914735E-16,1.21734980770302E-16));
#357=DIRECTION('center_axis',(1.22464679914735E-16,-1.,-1.49975978266186E-32));
#358=DIRECTION('ref_axis',(-1.,-1.22464679914735E-16,0.));
#359=DIRECTION('center_axis',(1.22464679914735E-16,0.,1.));
#360=DIRECTION('ref_axis',(-1.,1.22464679914735E-16,1.22464679914735E-16));
#361=DIRECTION('center_axis',(-1.22464679914735E-16,0.,-1.));
#362=DIRECTION('ref_axis',(-1.,0.,1.22464679914735E-16));
#363=DIRECTION('center_axis',(1.22464679914735E-16,0.,1.));
#364=DIRECTION('ref_axis',(-1.,0.,-6.12323399573677E-17));
#365=DIRECTION('center_axis',(1.22464679914735E-16,0.,1.));
#366=DIRECTION('ref_axis',(1.,0.,-1.55820775385987E-16));
#367=DIRECTION('',(-1.22464679914735E-16,0.,-1.));
#368=DIRECTION('center_axis',(-1.,0.,-1.2133584968581E-17));
#369=DIRECTION('ref_axis',(0.,0.,1.));
#370=DIRECTION('center_axis',(-1.48593559939551E-33,-1.,1.22464679914735E-16));
#371=DIRECTION('ref_axis',(0.,-1.22464679914735E-16,-1.));
#372=DIRECTION('center_axis',(-1.,0.,-1.2133584968581E-17));
#373=DIRECTION('ref_axis',(1.21335849685809E-17,1.22464679914735E-16,-1.));
#374=DIRECTION('center_axis',(1.,0.,1.2133584968581E-17));
#375=DIRECTION('ref_axis',(1.2133584968581E-17,0.,-1.));
#376=DIRECTION('center_axis',(-1.,0.,-1.2133584968581E-17));
#377=DIRECTION('ref_axis',(0.,0.,-1.));
#378=DIRECTION('center_axis',(1.,0.,1.22464679914735E-16));
#379=DIRECTION('ref_axis',(-1.22464679914735E-16,0.,1.));
#380=DIRECTION('',(1.,0.,1.22464679914735E-16));
#381=DIRECTION('center_axis',(1.,0.,1.34598264883316E-16));
#382=DIRECTION('ref_axis',(-1.34598264883316E-16,0.,1.));
#383=DIRECTION('center_axis',(-1.,0.,-1.34598264883316E-16));
#384=DIRECTION('ref_axis',(-1.34598264883316E-16,0.,1.));
#385=DIRECTION('center_axis',(-1.,0.,-1.34598264883316E-16));
#386=DIRECTION('ref_axis',(-1.2133584968581E-17,0.,1.));
#387=DIRECTION('center_axis',(-6.12323399573677E-17,0.,1.));
#388=DIRECTION('ref_axis',(-1.,0.,-6.12323399573677E-17));
#389=DIRECTION('',(-6.12323399573677E-17,0.,1.));
#390=DIRECTION('center_axis',(-7.33659249259486E-17,0.,1.));
#391=DIRECTION('ref_axis',(-1.,0.,-7.33659249259486E-17));
#392=DIRECTION('center_axis',(7.33659249259486E-17,0.,-1.));
#393=DIRECTION('ref_axis',(-1.,0.,-7.33659249259486E-17));
#394=DIRECTION('center_axis',(7.33659249259486E-17,0.,-1.));
#395=DIRECTION('ref_axis',(-1.,0.,1.225073682345E-16));
#396=DIRECTION('center_axis',(-1.,0.,0.));
#397=DIRECTION('ref_axis',(0.,0.,-1.));
#398=DIRECTION('',(-1.,0.,0.));
#399=DIRECTION('center_axis',(-1.,0.,-1.2133584968581E-17));
#400=DIRECTION('ref_axis',(1.2133584968581E-17,0.,-1.));
#401=DIRECTION('center_axis',(1.,0.,1.2133584968581E-17));
#402=DIRECTION('ref_axis',(1.2133584968581E-17,0.,-1.));
#403=DIRECTION('center_axis',(1.,0.,1.2133584968581E-17));
#404=DIRECTION('ref_axis',(-1.2133584968581E-17,0.,1.));
#405=DIRECTION('center_axis',(1.225073682345E-16,0.,1.));
#406=DIRECTION('ref_axis',(-1.,0.,1.225073682345E-16));
#407=DIRECTION('',(1.225073682345E-16,0.,1.));
#408=DIRECTION('center_axis',(0.707106781186548,0.,0.707106781186548));
#409=DIRECTION('ref_axis',(0.707106781186547,0.,-0.707106781186547));
#410=DIRECTION('center_axis',(-0.707106781186547,0.,0.707106781186548));
#411=DIRECTION('ref_axis',(-0.707106781186548,0.,-0.707106781186547));
#412=DIRECTION('center_axis',(-0.707106781186547,0.,0.707106781186548));
#413=DIRECTION('ref_axis',(-0.707106781186548,0.,-0.707106781186547));
#414=DIRECTION('center_axis',(0.707106781186548,0.,0.707106781186548));
#415=DIRECTION('ref_axis',(0.707106781186547,0.,-0.707106781186547));
#416=DIRECTION('center_axis',(-1.,0.,-1.2133584968581E-17));
#417=DIRECTION('ref_axis',(-1.2133584968581E-17,0.,1.));
#418=DIRECTION('',(1.,0.,1.2133584968581E-17));
#419=DIRECTION('',(1.,0.,1.2133584968581E-17));
#420=CARTESIAN_POINT('',(0.,0.,0.));
#421=CARTESIAN_POINT('Origin',(-90.5,0.,2.23257963421889E-15));
#422=CARTESIAN_POINT('',(-91.5,-6.85802207522518E-15,-56.));
#423=CARTESIAN_POINT('Origin',(-91.5,0.,2.22044604925031E-15));
#424=CARTESIAN_POINT('',(-90.5,-6.98048675513991E-15,-57.));
#425=CARTESIAN_POINT('Origin',(-90.5,-6.85802207522518E-15,-56.));
#426=CARTESIAN_POINT('Origin',(-90.5,0.,2.23257963421889E-15));
#427=CARTESIAN_POINT('Origin',(0.,0.,3.33066907387547E-15));
#428=CARTESIAN_POINT('',(-57.,-6.98048675513992E-15,-57.));
#429=CARTESIAN_POINT('',(6.91614343209114E-16,-6.98048675513991E-15,-57.));
#430=CARTESIAN_POINT('',(8.36642038778211E-31,-57.,4.44089209850063E-15));
#431=CARTESIAN_POINT('Origin',(9.86076131526265E-31,0.,0.));
#432=CARTESIAN_POINT('',(57.,-6.98048675513992E-15,-57.));
#433=CARTESIAN_POINT('Origin',(9.86076131526265E-31,0.,0.));
#434=CARTESIAN_POINT('',(90.5,-6.98048675513991E-15,-57.));
#435=CARTESIAN_POINT('',(6.91614343209114E-16,-6.98048675513991E-15,-57.));
#436=CARTESIAN_POINT('Origin',(90.5,0.,4.42875851353205E-15));
#437=CARTESIAN_POINT('',(8.36642038778211E-31,57.,4.44089209850063E-15));
#438=CARTESIAN_POINT('Origin',(9.86076131526265E-31,0.,0.));
#439=CARTESIAN_POINT('Origin',(9.86076131526265E-31,0.,0.));
#440=CARTESIAN_POINT('Origin',(-91.5,0.,42.9));
#441=CARTESIAN_POINT('',(-91.5,5.51091059616309E-15,-45.));
#442=CARTESIAN_POINT('Origin',(-91.5,0.,-1.56464103106989E-14));
#443=CARTESIAN_POINT('Origin',(-1.0654427152582E-14,0.,-87.));
#444=CARTESIAN_POINT('',(-57.,-6.98048675513991E-15,-87.));
#445=CARTESIAN_POINT('Origin',(-1.0654427152582E-14,0.,-87.));
#446=CARTESIAN_POINT('',(-56.,-6.85802207522518E-15,-88.));
#447=CARTESIAN_POINT('Origin',(-56.,-6.85802207522518E-15,-87.));
#448=CARTESIAN_POINT('Origin',(-1.07768918324967E-14,0.,-88.));
#449=CARTESIAN_POINT('Origin',(57.,0.,-88.));
#450=CARTESIAN_POINT('',(45.,5.51091059616309E-15,-88.));
#451=CARTESIAN_POINT('Origin',(9.82933801474898E-15,0.,-88.));
#452=CARTESIAN_POINT('Origin',(-5.38844591624835E-15,0.,-44.));
#453=CARTESIAN_POINT('',(-57.,-6.98048675513991E-15,-44.));
#454=CARTESIAN_POINT('Origin',(90.5,0.,4.42875851353205E-15));
#455=CARTESIAN_POINT('',(91.5,-6.85802207522518E-15,-56.));
#456=CARTESIAN_POINT('Origin',(90.5,-6.85802207522518E-15,-56.));
#457=CARTESIAN_POINT('Origin',(91.5,0.,4.44089209850063E-15));
#458=CARTESIAN_POINT('Origin',(91.5,0.,57.));
#459=CARTESIAN_POINT('',(91.5,5.51091059616309E-15,45.));
#460=CARTESIAN_POINT('Origin',(91.5,0.,4.44089209850063E-15));
#461=CARTESIAN_POINT('Origin',(-91.5,0.,-1.56464103106989E-14));
#462=CARTESIAN_POINT('',(-55.,5.51091059616309E-15,-45.));
#463=CARTESIAN_POINT('',(-91.5,5.51091059616309E-15,-45.));
#464=CARTESIAN_POINT('Origin',(-55.,0.,-1.11764494938111E-14));
#465=CARTESIAN_POINT('Origin',(-55.,0.,-1.56173415923117E-14));
#466=CARTESIAN_POINT('',(-55.,-5.25373476834215E-15,-42.9));
#467=CARTESIAN_POINT('Origin',(-55.,0.,2.66332190060352E-15));
#468=CARTESIAN_POINT('Origin',(1.00436512045998E-14,0.,-91.5));
#469=CARTESIAN_POINT('',(45.,5.51091059616309E-15,-55.));
#470=CARTESIAN_POINT('',(45.,5.51091059616309E-15,-91.5));
#471=CARTESIAN_POINT('Origin',(7.80867079615585E-15,0.,-55.));
#472=CARTESIAN_POINT('Origin',(1.22495628946565E-14,0.,-55.));
#473=CARTESIAN_POINT('',(42.9,5.25373476834215E-15,-55.));
#474=CARTESIAN_POINT('Origin',(-6.73414868075821E-15,0.,-55.));
#475=CARTESIAN_POINT('Origin',(91.5,0.,4.44089209850063E-15));
#476=CARTESIAN_POINT('',(55.,5.51091059616309E-15,45.));
#477=CARTESIAN_POINT('',(91.5,5.51091059616309E-15,45.));
#478=CARTESIAN_POINT('Origin',(55.,0.,4.44089209850063E-15));
#479=CARTESIAN_POINT('Origin',(55.,0.,8.88178419700125E-15));
#480=CARTESIAN_POINT('',(55.,5.25373476834215E-15,-42.9));
#481=CARTESIAN_POINT('Origin',(55.,0.,3.99801624714742E-15));
#482=CARTESIAN_POINT('Origin',(-1.07768918324967E-14,0.,-88.));
#483=CARTESIAN_POINT('',(42.9,5.25373476834215E-15,-42.9));
#484=CARTESIAN_POINT('',(42.9,5.25373476834215E-15,-88.));
#485=CARTESIAN_POINT('',(3.7565721392907E-18,42.9,0.));
#486=CARTESIAN_POINT('Origin',(0.,0.,4.44089209850063E-15));
#487=CARTESIAN_POINT('',(-42.9,-5.25373476834215E-15,-42.9));
#488=CARTESIAN_POINT('Origin',(0.,0.,4.44089209850063E-15));
#489=CARTESIAN_POINT('',(3.7565721392907E-18,-42.9,0.));
#490=CARTESIAN_POINT('Origin',(0.,0.,4.44089209850063E-15));
#491=CARTESIAN_POINT('Origin',(0.,0.,4.44089209850063E-15));
#492=CARTESIAN_POINT('Origin',(0.,0.,3.33066907387547E-15));
#493=CARTESIAN_POINT('',(5.20530795152123E-16,-5.25373476834215E-15,-42.9));
#494=CARTESIAN_POINT('',(5.20530795152123E-16,-5.25373476834215E-15,-42.9));
#495=UNCERTAINTY_MEASURE_WITH_UNIT(LENGTH_MEASURE(0.01),#499,
'DISTANCE_ACCURACY_VALUE',
'Maximum model space distance between geometric entities at asserted c
onnectivities');
#496=UNCERTAINTY_MEASURE_WITH_UNIT(LENGTH_MEASURE(0.01),#499,
'DISTANCE_ACCURACY_VALUE',
'Maximum model space distance between geometric entities at asserted c
onnectivities');
#497=(
GEOMETRIC_REPRESENTATION_CONTEXT(3)
GLOBAL_UNCERTAINTY_ASSIGNED_CONTEXT((#495))
GLOBAL_UNIT_ASSIGNED_CONTEXT((#499,#501,#502))
REPRESENTATION_CONTEXT('','3D')
);
#498=(
GEOMETRIC_REPRESENTATION_CONTEXT(3)
GLOBAL_UNCERTAINTY_ASSIGNED_CONTEXT((#496))
GLOBAL_UNIT_ASSIGNED_CONTEXT((#499,#501,#502))
REPRESENTATION_CONTEXT('','3D')
);
#499=(
LENGTH_UNIT()
NAMED_UNIT(*)
SI_UNIT(.MILLI.,.METRE.)
);
#500=(
LENGTH_UNIT()
NAMED_UNIT(*)
SI_UNIT(.CENTI.,.METRE.)
);
#501=(
NAMED_UNIT(*)
PLANE_ANGLE_UNIT()
SI_UNIT($,.RADIAN.)
);
#502=(
NAMED_UNIT(*)
SI_UNIT($,.STERADIAN.)
SOLID_ANGLE_UNIT()
);
#503=SHAPE_DEFINITION_REPRESENTATION(#504,#505);
#504=PRODUCT_DEFINITION_SHAPE('',$,#507);
#505=SHAPE_REPRESENTATION('',(#282),#497);
#506=PRODUCT_DEFINITION_CONTEXT('part definition',#511,'design');
#507=PRODUCT_DEFINITION('TIE-RC-090','TIE-RC-090',#508,#506);
#508=PRODUCT_DEFINITION_FORMATION('0',$,#513);
#509=PRODUCT_RELATED_PRODUCT_CATEGORY('TIE-RC-090','TIE-RC-090',(#513));
#510=APPLICATION_PROTOCOL_DEFINITION('international standard',
'automotive_design',2009,#511);
#511=APPLICATION_CONTEXT(
'Core Data for Automotive Mechanical Design Process');
#512=PRODUCT_CONTEXT('part definition',#511,'mechanical');
#513=PRODUCT('TIE-RC-090','TIE-RC-090',
'PE100 Equal Tee for socket welding, \X\D890, PN16',(#512));
#514=PRESENTATION_STYLE_ASSIGNMENT((#515));
#515=SURFACE_STYLE_USAGE(.BOTH.,#518);
#516=SURFACE_STYLE_RENDERING_WITH_PROPERTIES($,#522,(#517));
#517=SURFACE_STYLE_TRANSPARENT(0.);
#518=SURFACE_SIDE_STYLE('',(#519,#516));
#519=SURFACE_STYLE_FILL_AREA(#520);
#520=FILL_AREA_STYLE('',(#521));
#521=FILL_AREA_STYLE_COLOUR('',#522);
#522=COLOUR_RGB('',0.109803921568627,0.109803921568627,0.129411764705882);
ENDSEC;
END-ISO-10303-21;
