ISO-10303-21;
HEADER;
/* Generated by software containing ST-Developer
 * from STEP Tools, Inc. (www.steptools.com) 
 */

FILE_DESCRIPTION(
/* description */ (''),
/* implementation_level */ '2;1');

FILE_NAME(
/* name */ 'C:\\Users\\Gabriele\\Desktop\\catalogo\\BE30\\BE300320.stp',

/* time_stamp */ '2016-10-17T14:44:06+02:00',
/* author */ ('Gabriele'),
/* organization */ (''),
/* preprocessor_version */ 'ST-DEVELOPER v16.5',
/* originating_system */ 'Autodesk Inventor 2017',
/* authorisation */ '');

FILE_SCHEMA (('AUTOMOTIVE_DESIGN { 1 0 10303 214 3 1 1 }'));
ENDSEC;

DATA;
#10=MECHANICAL_DESIGN_GEOMETRIC_PRESENTATION_REPRESENTATION('',(#13),#507);
#11=SHAPE_REPRESENTATION_RELATIONSHIP('SRR','None',#516,#12);
#12=ADVANCED_BREP_SHAPE_REPRESENTATION('',(#14),#506);
#13=STYLED_ITEM('',(#525),#14);
#14=MANIFOLD_SOLID_BREP('Solido1',#213);
#15=B_SPLINE_CURVE_WITH_KNOTS('',3,(#330,#331,#332,#333,#334,#335,#336,
#337,#338,#339,#340,#341,#342,#343,#344,#345,#346,#347,#348,#349,#350,#351,
#352,#353,#354,#355,#356,#357,#358,#359,#360,#361,#362,#363,#364,#365,#366,
#367,#368,#369,#370,#371,#372,#373,#374,#375,#376,#377,#378,#379,#380,#381,
#382,#383,#384,#385,#386,#387,#388,#389,#390,#391,#392,#393,#394,#395),
 .UNSPECIFIED.,.T.,.F.,(4,2,2,2,2,2,2,2,2,2,2,2,2,2,2,2,2,2,2,2,2,2,2,2,
2,2,2,2,2,2,2,2,4),(0.,0.370230631041763,0.740461262083527,1.11070533084721,
1.4809493996109,1.85121474065077,2.22148008169064,2.59177421405578,2.96206834642091,
3.33237605058428,3.70268375474765,4.07298326036068,4.44328276597371,4.81354601855193,
5.18380927113015,5.55402506506814,5.92424085900614,6.29445665294413,6.66467244688213,
7.03493569946035,7.40519895203856,7.7754984576516,8.14579796326463,8.516105667428,
8.88641337159136,9.2567075039565,9.62700163632164,9.99726697736151,10.3675323184014,
10.7377763871651,11.1080204559288,11.4782510869705,11.8484817180123),
 .UNSPECIFIED.);
#16=B_SPLINE_CURVE_WITH_KNOTS('',3,(#406,#407,#408,#409,#410,#411,#412,
#413,#414,#415,#416,#417,#418,#419,#420,#421,#422,#423,#424,#425,#426,#427,
#428,#429,#430,#431,#432,#433,#434,#435,#436,#437,#438,#439,#440,#441,#442,
#443,#444,#445,#446,#447,#448,#449,#450,#451,#452,#453,#454,#455,#456,#457,
#458,#459,#460,#461,#462,#463,#464,#465,#466,#467,#468,#469,#470,#471),
 .UNSPECIFIED.,.T.,.F.,(4,2,2,2,2,2,2,2,2,2,2,2,2,2,2,2,2,2,2,2,2,2,2,2,
2,2,2,2,2,2,2,2,4),(0.,0.370230631041763,0.740461262083526,1.11070533084721,
1.48094939961089,1.85121474065077,2.22148008169064,2.59177421405578,2.96206834642091,
3.33237605058428,3.70268375474765,4.07298326036068,4.44328276597371,4.81354601855193,
5.18380927113015,5.55402506506814,5.92424085900614,6.29445665294413,6.66467244688213,
7.03493569946035,7.40519895203856,7.7754984576516,8.14579796326463,8.516105667428,
8.88641337159136,9.2567075039565,9.62700163632163,9.99726697736151,10.3675323184014,
10.7377763871651,11.1080204559287,11.4782510869705,11.8484817180123),
 .UNSPECIFIED.);
#17=PLANE('',#220);
#18=PLANE('',#226);
#19=PLANE('',#230);
#20=PLANE('',#237);
#21=PLANE('',#246);
#22=PLANE('',#247);
#23=CYLINDRICAL_SURFACE('',#218,21.);
#24=CYLINDRICAL_SURFACE('',#224,21.);
#25=CYLINDRICAL_SURFACE('',#232,16.);
#26=CYLINDRICAL_SURFACE('',#239,16.);
#27=FACE_BOUND('',#64,.T.);
#28=FACE_BOUND('',#66,.T.);
#29=FACE_BOUND('',#68,.T.);
#30=FACE_BOUND('',#70,.T.);
#31=FACE_BOUND('',#72,.T.);
#32=FACE_BOUND('',#74,.T.);
#33=FACE_BOUND('',#76,.T.);
#34=FACE_BOUND('',#78,.T.);
#35=FACE_BOUND('',#80,.T.);
#36=FACE_BOUND('',#82,.T.);
#37=FACE_BOUND('',#84,.T.);
#38=FACE_BOUND('',#86,.T.);
#39=FACE_BOUND('',#88,.T.);
#40=FACE_BOUND('',#90,.T.);
#41=FACE_BOUND('',#92,.T.);
#42=FACE_BOUND('',#94,.T.);
#43=FACE_BOUND('',#96,.T.);
#44=FACE_BOUND('',#98,.T.);
#45=FACE_OUTER_BOUND('',#63,.T.);
#46=FACE_OUTER_BOUND('',#65,.T.);
#47=FACE_OUTER_BOUND('',#67,.T.);
#48=FACE_OUTER_BOUND('',#69,.T.);
#49=FACE_OUTER_BOUND('',#71,.T.);
#50=FACE_OUTER_BOUND('',#73,.T.);
#51=FACE_OUTER_BOUND('',#75,.T.);
#52=FACE_OUTER_BOUND('',#77,.T.);
#53=FACE_OUTER_BOUND('',#79,.T.);
#54=FACE_OUTER_BOUND('',#81,.T.);
#55=FACE_OUTER_BOUND('',#83,.T.);
#56=FACE_OUTER_BOUND('',#85,.T.);
#57=FACE_OUTER_BOUND('',#87,.T.);
#58=FACE_OUTER_BOUND('',#89,.T.);
#59=FACE_OUTER_BOUND('',#91,.T.);
#60=FACE_OUTER_BOUND('',#93,.T.);
#61=FACE_OUTER_BOUND('',#95,.T.);
#62=FACE_OUTER_BOUND('',#97,.T.);
#63=EDGE_LOOP('',(#151));
#64=EDGE_LOOP('',(#152));
#65=EDGE_LOOP('',(#153));
#66=EDGE_LOOP('',(#154));
#67=EDGE_LOOP('',(#155));
#68=EDGE_LOOP('',(#156));
#69=EDGE_LOOP('',(#157));
#70=EDGE_LOOP('',(#158));
#71=EDGE_LOOP('',(#159));
#72=EDGE_LOOP('',(#160));
#73=EDGE_LOOP('',(#161));
#74=EDGE_LOOP('',(#162));
#75=EDGE_LOOP('',(#163));
#76=EDGE_LOOP('',(#164));
#77=EDGE_LOOP('',(#165));
#78=EDGE_LOOP('',(#166));
#79=EDGE_LOOP('',(#167));
#80=EDGE_LOOP('',(#168));
#81=EDGE_LOOP('',(#169));
#82=EDGE_LOOP('',(#170));
#83=EDGE_LOOP('',(#171));
#84=EDGE_LOOP('',(#172));
#85=EDGE_LOOP('',(#173));
#86=EDGE_LOOP('',(#174));
#87=EDGE_LOOP('',(#175));
#88=EDGE_LOOP('',(#176));
#89=EDGE_LOOP('',(#177));
#90=EDGE_LOOP('',(#178));
#91=EDGE_LOOP('',(#179));
#92=EDGE_LOOP('',(#180));
#93=EDGE_LOOP('',(#181));
#94=EDGE_LOOP('',(#182));
#95=EDGE_LOOP('',(#183));
#96=EDGE_LOOP('',(#184));
#97=EDGE_LOOP('',(#185));
#98=EDGE_LOOP('',(#186));
#99=CIRCLE('',#216,21.);
#100=CIRCLE('',#217,20.5);
#101=CIRCLE('',#219,21.);
#102=CIRCLE('',#222,20.5);
#103=CIRCLE('',#223,21.);
#104=CIRCLE('',#225,21.);
#105=CIRCLE('',#228,16.);
#106=CIRCLE('',#229,16.5);
#107=CIRCLE('',#231,20.5);
#108=CIRCLE('',#233,16.);
#109=CIRCLE('',#235,16.);
#110=CIRCLE('',#236,16.5);
#111=CIRCLE('',#238,20.5);
#112=CIRCLE('',#240,16.);
#113=CIRCLE('',#244,15.);
#114=CIRCLE('',#245,15.);
#115=VERTEX_POINT('',#321);
#116=VERTEX_POINT('',#323);
#117=VERTEX_POINT('',#326);
#118=VERTEX_POINT('',#329);
#119=VERTEX_POINT('',#397);
#120=VERTEX_POINT('',#399);
#121=VERTEX_POINT('',#402);
#122=VERTEX_POINT('',#405);
#123=VERTEX_POINT('',#473);
#124=VERTEX_POINT('',#475);
#125=VERTEX_POINT('',#478);
#126=VERTEX_POINT('',#481);
#127=VERTEX_POINT('',#484);
#128=VERTEX_POINT('',#486);
#129=VERTEX_POINT('',#489);
#130=VERTEX_POINT('',#492);
#131=VERTEX_POINT('',#497);
#132=VERTEX_POINT('',#499);
#133=EDGE_CURVE('',#115,#115,#99,.T.);
#134=EDGE_CURVE('',#116,#116,#100,.T.);
#135=EDGE_CURVE('',#117,#117,#101,.T.);
#136=EDGE_CURVE('',#118,#118,#15,.T.);
#137=EDGE_CURVE('',#119,#119,#102,.T.);
#138=EDGE_CURVE('',#120,#120,#103,.T.);
#139=EDGE_CURVE('',#121,#121,#104,.T.);
#140=EDGE_CURVE('',#122,#122,#16,.T.);
#141=EDGE_CURVE('',#123,#123,#105,.T.);
#142=EDGE_CURVE('',#124,#124,#106,.T.);
#143=EDGE_CURVE('',#125,#125,#107,.T.);
#144=EDGE_CURVE('',#126,#126,#108,.T.);
#145=EDGE_CURVE('',#127,#127,#109,.T.);
#146=EDGE_CURVE('',#128,#128,#110,.T.);
#147=EDGE_CURVE('',#129,#129,#111,.T.);
#148=EDGE_CURVE('',#130,#130,#112,.T.);
#149=EDGE_CURVE('',#131,#131,#113,.T.);
#150=EDGE_CURVE('',#132,#132,#114,.T.);
#151=ORIENTED_EDGE('',*,*,#133,.T.);
#152=ORIENTED_EDGE('',*,*,#134,.T.);
#153=ORIENTED_EDGE('',*,*,#135,.F.);
#154=ORIENTED_EDGE('',*,*,#133,.F.);
#155=ORIENTED_EDGE('',*,*,#134,.F.);
#156=ORIENTED_EDGE('',*,*,#136,.F.);
#157=ORIENTED_EDGE('',*,*,#137,.T.);
#158=ORIENTED_EDGE('',*,*,#138,.T.);
#159=ORIENTED_EDGE('',*,*,#139,.F.);
#160=ORIENTED_EDGE('',*,*,#138,.F.);
#161=ORIENTED_EDGE('',*,*,#137,.F.);
#162=ORIENTED_EDGE('',*,*,#140,.F.);
#163=ORIENTED_EDGE('',*,*,#141,.T.);
#164=ORIENTED_EDGE('',*,*,#142,.T.);
#165=ORIENTED_EDGE('',*,*,#143,.F.);
#166=ORIENTED_EDGE('',*,*,#142,.F.);
#167=ORIENTED_EDGE('',*,*,#144,.F.);
#168=ORIENTED_EDGE('',*,*,#141,.F.);
#169=ORIENTED_EDGE('',*,*,#145,.T.);
#170=ORIENTED_EDGE('',*,*,#146,.T.);
#171=ORIENTED_EDGE('',*,*,#147,.F.);
#172=ORIENTED_EDGE('',*,*,#146,.F.);
#173=ORIENTED_EDGE('',*,*,#148,.T.);
#174=ORIENTED_EDGE('',*,*,#145,.F.);
#175=ORIENTED_EDGE('',*,*,#147,.T.);
#176=ORIENTED_EDGE('',*,*,#135,.T.);
#177=ORIENTED_EDGE('',*,*,#139,.T.);
#178=ORIENTED_EDGE('',*,*,#143,.T.);
#179=ORIENTED_EDGE('',*,*,#149,.F.);
#180=ORIENTED_EDGE('',*,*,#150,.F.);
#181=ORIENTED_EDGE('',*,*,#144,.T.);
#182=ORIENTED_EDGE('',*,*,#150,.T.);
#183=ORIENTED_EDGE('',*,*,#148,.F.);
#184=ORIENTED_EDGE('',*,*,#149,.T.);
#185=ORIENTED_EDGE('',*,*,#140,.T.);
#186=ORIENTED_EDGE('',*,*,#136,.T.);
#187=TOROIDAL_SURFACE('',#215,20.5,0.5);
#188=TOROIDAL_SURFACE('',#221,20.5,0.5);
#189=TOROIDAL_SURFACE('',#227,16.5,0.5);
#190=TOROIDAL_SURFACE('',#234,16.5,0.5);
#191=TOROIDAL_SURFACE('',#241,20.5,0.5);
#192=TOROIDAL_SURFACE('',#242,20.5,0.5);
#193=TOROIDAL_SURFACE('',#243,64.,15.);
#194=TOROIDAL_SURFACE('',#248,64.,20.);
#195=ADVANCED_FACE('',(#45,#27),#187,.T.);
#196=ADVANCED_FACE('',(#46,#28),#23,.T.);
#197=ADVANCED_FACE('',(#47,#29),#17,.T.);
#198=ADVANCED_FACE('',(#48,#30),#188,.T.);
#199=ADVANCED_FACE('',(#49,#31),#24,.T.);
#200=ADVANCED_FACE('',(#50,#32),#18,.F.);
#201=ADVANCED_FACE('',(#51,#33),#189,.T.);
#202=ADVANCED_FACE('',(#52,#34),#19,.T.);
#203=ADVANCED_FACE('',(#53,#35),#25,.F.);
#204=ADVANCED_FACE('',(#54,#36),#190,.T.);
#205=ADVANCED_FACE('',(#55,#37),#20,.F.);
#206=ADVANCED_FACE('',(#56,#38),#26,.F.);
#207=ADVANCED_FACE('',(#57,#39),#191,.T.);
#208=ADVANCED_FACE('',(#58,#40),#192,.T.);
#209=ADVANCED_FACE('',(#59,#41),#193,.F.);
#210=ADVANCED_FACE('',(#60,#42),#21,.T.);
#211=ADVANCED_FACE('',(#61,#43),#22,.F.);
#212=ADVANCED_FACE('',(#62,#44),#194,.T.);
#213=CLOSED_SHELL('',(#195,#196,#197,#198,#199,#200,#201,#202,#203,#204,
#205,#206,#207,#208,#209,#210,#211,#212));
#214=AXIS2_PLACEMENT_3D('placement',#319,#249,#250);
#215=AXIS2_PLACEMENT_3D('',#320,#251,#252);
#216=AXIS2_PLACEMENT_3D('',#322,#253,#254);
#217=AXIS2_PLACEMENT_3D('',#324,#255,#256);
#218=AXIS2_PLACEMENT_3D('',#325,#257,#258);
#219=AXIS2_PLACEMENT_3D('',#327,#259,#260);
#220=AXIS2_PLACEMENT_3D('',#328,#261,#262);
#221=AXIS2_PLACEMENT_3D('',#396,#263,#264);
#222=AXIS2_PLACEMENT_3D('',#398,#265,#266);
#223=AXIS2_PLACEMENT_3D('',#400,#267,#268);
#224=AXIS2_PLACEMENT_3D('',#401,#269,#270);
#225=AXIS2_PLACEMENT_3D('',#403,#271,#272);
#226=AXIS2_PLACEMENT_3D('',#404,#273,#274);
#227=AXIS2_PLACEMENT_3D('',#472,#275,#276);
#228=AXIS2_PLACEMENT_3D('',#474,#277,#278);
#229=AXIS2_PLACEMENT_3D('',#476,#279,#280);
#230=AXIS2_PLACEMENT_3D('',#477,#281,#282);
#231=AXIS2_PLACEMENT_3D('',#479,#283,#284);
#232=AXIS2_PLACEMENT_3D('',#480,#285,#286);
#233=AXIS2_PLACEMENT_3D('',#482,#287,#288);
#234=AXIS2_PLACEMENT_3D('',#483,#289,#290);
#235=AXIS2_PLACEMENT_3D('',#485,#291,#292);
#236=AXIS2_PLACEMENT_3D('',#487,#293,#294);
#237=AXIS2_PLACEMENT_3D('',#488,#295,#296);
#238=AXIS2_PLACEMENT_3D('',#490,#297,#298);
#239=AXIS2_PLACEMENT_3D('',#491,#299,#300);
#240=AXIS2_PLACEMENT_3D('',#493,#301,#302);
#241=AXIS2_PLACEMENT_3D('',#494,#303,#304);
#242=AXIS2_PLACEMENT_3D('',#495,#305,#306);
#243=AXIS2_PLACEMENT_3D('',#496,#307,#308);
#244=AXIS2_PLACEMENT_3D('',#498,#309,#310);
#245=AXIS2_PLACEMENT_3D('',#500,#311,#312);
#246=AXIS2_PLACEMENT_3D('',#501,#313,#314);
#247=AXIS2_PLACEMENT_3D('',#502,#315,#316);
#248=AXIS2_PLACEMENT_3D('',#503,#317,#318);
#249=DIRECTION('axis',(0.,0.,1.));
#250=DIRECTION('refdir',(1.,0.,0.));
#251=DIRECTION('center_axis',(0.,0.,1.));
#252=DIRECTION('ref_axis',(1.,0.,0.));
#253=DIRECTION('center_axis',(0.,0.,1.));
#254=DIRECTION('ref_axis',(1.,0.,0.));
#255=DIRECTION('center_axis',(0.,0.,-1.));
#256=DIRECTION('ref_axis',(1.,0.,0.));
#257=DIRECTION('center_axis',(0.,0.,1.));
#258=DIRECTION('ref_axis',(1.,0.,0.));
#259=DIRECTION('center_axis',(0.,0.,-1.));
#260=DIRECTION('ref_axis',(1.,0.,0.));
#261=DIRECTION('center_axis',(0.,0.,1.));
#262=DIRECTION('ref_axis',(1.,0.,0.));
#263=DIRECTION('center_axis',(-1.,0.,-2.22044604925031E-16));
#264=DIRECTION('ref_axis',(-3.38353683695286E-16,0.,1.));
#265=DIRECTION('center_axis',(-1.,0.,-2.22044604925031E-16));
#266=DIRECTION('ref_axis',(-2.22044604925031E-16,0.,1.));
#267=DIRECTION('center_axis',(1.,0.,2.22044604925031E-16));
#268=DIRECTION('ref_axis',(-2.21383757886564E-16,0.,1.));
#269=DIRECTION('center_axis',(-1.,0.,-2.22044604925031E-16));
#270=DIRECTION('ref_axis',(-2.22044604925031E-16,0.,1.));
#271=DIRECTION('center_axis',(-1.,0.,6.12323399573677E-17));
#272=DIRECTION('ref_axis',(6.27804686543987E-17,0.,1.));
#273=DIRECTION('center_axis',(-1.,0.,-2.22044604925031E-16));
#274=DIRECTION('ref_axis',(0.,0.,1.));
#275=DIRECTION('center_axis',(1.,0.,-6.12323399573677E-17));
#276=DIRECTION('ref_axis',(0.,0.,-1.));
#277=DIRECTION('center_axis',(1.,0.,-6.12323399573677E-17));
#278=DIRECTION('ref_axis',(6.07153216591883E-17,0.,1.));
#279=DIRECTION('center_axis',(-1.,0.,6.12323399573677E-17));
#280=DIRECTION('ref_axis',(6.12323399573677E-17,0.,1.));
#281=DIRECTION('center_axis',(-1.,0.,6.12323399573677E-17));
#282=DIRECTION('ref_axis',(0.,0.,1.));
#283=DIRECTION('center_axis',(1.,0.,-6.12323399573677E-17));
#284=DIRECTION('ref_axis',(6.12323399573676E-17,0.,1.));
#285=DIRECTION('center_axis',(-1.,0.,-2.22044604925031E-16));
#286=DIRECTION('ref_axis',(-2.22044604925031E-16,0.,1.));
#287=DIRECTION('center_axis',(-1.,0.,-2.22044604925031E-16));
#288=DIRECTION('ref_axis',(-2.22044604925031E-16,0.,1.));
#289=DIRECTION('center_axis',(0.,0.,1.));
#290=DIRECTION('ref_axis',(1.,0.,0.));
#291=DIRECTION('center_axis',(0.,0.,1.));
#292=DIRECTION('ref_axis',(1.,0.,0.));
#293=DIRECTION('center_axis',(0.,0.,-1.));
#294=DIRECTION('ref_axis',(1.,0.,0.));
#295=DIRECTION('center_axis',(0.,0.,1.));
#296=DIRECTION('ref_axis',(1.,0.,0.));
#297=DIRECTION('center_axis',(0.,0.,1.));
#298=DIRECTION('ref_axis',(1.,0.,0.));
#299=DIRECTION('center_axis',(0.,0.,1.));
#300=DIRECTION('ref_axis',(1.,0.,0.));
#301=DIRECTION('center_axis',(0.,0.,1.));
#302=DIRECTION('ref_axis',(1.,0.,0.));
#303=DIRECTION('center_axis',(0.,0.,1.));
#304=DIRECTION('ref_axis',(1.,0.,0.));
#305=DIRECTION('center_axis',(-1.,0.,6.12323399573677E-17));
#306=DIRECTION('ref_axis',(0.,0.,1.));
#307=DIRECTION('center_axis',(0.,1.,0.));
#308=DIRECTION('ref_axis',(0.,0.,1.));
#309=DIRECTION('center_axis',(0.,0.,1.));
#310=DIRECTION('ref_axis',(-1.,0.,0.));
#311=DIRECTION('center_axis',(1.,0.,2.22044604925031E-16));
#312=DIRECTION('ref_axis',(-2.22044604925031E-16,0.,1.));
#313=DIRECTION('center_axis',(-1.,0.,-2.22044604925031E-16));
#314=DIRECTION('ref_axis',(0.,0.,1.));
#315=DIRECTION('center_axis',(0.,0.,1.));
#316=DIRECTION('ref_axis',(1.,0.,0.));
#317=DIRECTION('center_axis',(0.,-1.,0.));
#318=DIRECTION('ref_axis',(0.,0.,-1.));
#319=CARTESIAN_POINT('',(0.,0.,0.));
#320=CARTESIAN_POINT('Origin',(0.,0.,22.5));
#321=CARTESIAN_POINT('',(-21.,-2.57175827820944E-15,22.5));
#322=CARTESIAN_POINT('Origin',(0.,0.,22.5));
#323=CARTESIAN_POINT('',(-20.5,2.51052593825207E-15,23.));
#324=CARTESIAN_POINT('Origin',(0.,0.,23.));
#325=CARTESIAN_POINT('Origin',(0.,0.,0.));
#326=CARTESIAN_POINT('',(-21.,2.57175827820944E-15,0.5));
#327=CARTESIAN_POINT('Origin',(0.,0.,0.5));
#328=CARTESIAN_POINT('Origin',(9.19216697549299E-16,0.,23.));
#329=CARTESIAN_POINT('',(19.9940474081348,-5.55111512312578E-16,23.));
#330=CARTESIAN_POINT('Ctrl Pts',(19.9940474081348,-5.55111512312578E-16,
23.));
#331=CARTESIAN_POINT('Ctrl Pts',(19.9940474081348,1.23410210347254,23.));
#332=CARTESIAN_POINT('Ctrl Pts',(19.8722823901075,2.58190053373506,23.));
#333=CARTESIAN_POINT('Ctrl Pts',(19.3472124465175,5.22149355008859,23.));
#334=CARTESIAN_POINT('Ctrl Pts',(18.9439076680805,6.51328816544598,23.));
#335=CARTESIAN_POINT('Ctrl Pts',(17.9993182129272,8.79363986727024,23.));
#336=CARTESIAN_POINT('Ctrl Pts',(17.3710013324363,9.99227982260171,23.));
#337=CARTESIAN_POINT('Ctrl Pts',(15.8756862927942,12.2300715125042,23.));
#338=CARTESIAN_POINT('Ctrl Pts',(15.0086885005272,13.2692234922309,23.));
#339=CARTESIAN_POINT('Ctrl Pts',(13.2632514950782,15.014581320581,23.));
#340=CARTESIAN_POINT('Ctrl Pts',(12.2239964203246,15.8815757906129,23.));
#341=CARTESIAN_POINT('Ctrl Pts',(9.98600376653626,17.3768712866021,23.));
#342=CARTESIAN_POINT('Ctrl Pts',(8.78726656620985,18.0051728793679,23.));
#343=CARTESIAN_POINT('Ctrl Pts',(6.5066235269046,18.9497973968001,23.));
#344=CARTESIAN_POINT('Ctrl Pts',(5.21459484122864,19.3531309430428,23.));
#345=CARTESIAN_POINT('Ctrl Pts',(2.57453340403707,19.8782318797971,23.));
#346=CARTESIAN_POINT('Ctrl Pts',(1.22650079765508,20.,23.));
#347=CARTESIAN_POINT('Ctrl Pts',(-1.24217199077327,20.,23.));
#348=CARTESIAN_POINT('Ctrl Pts',(-2.59025307755577,19.8782229201746,23.));
#349=CARTESIAN_POINT('Ctrl Pts',(-5.23041408677881,19.3531060157216,23.));
#350=CARTESIAN_POINT('Ctrl Pts',(-6.52249407870674,18.9497665404598,23.));
#351=CARTESIAN_POINT('Ctrl Pts',(-8.80330073541318,18.0051212296102,23.));
#352=CARTESIAN_POINT('Ctrl Pts',(-10.0021634029212,17.3767890022063,23.));
#353=CARTESIAN_POINT('Ctrl Pts',(-12.2404115900488,15.8814234054901,23.));
#354=CARTESIAN_POINT('Ctrl Pts',(-13.2797966984623,15.0143894206891,23.));
#355=CARTESIAN_POINT('Ctrl Pts',(-15.0254345770597,13.268980985418,23.));
#356=CARTESIAN_POINT('Ctrl Pts',(-15.8925305731119,12.2298184138257,23.));
#357=CARTESIAN_POINT('Ctrl Pts',(-17.3880370518995,9.99198740828785,23.));
#358=CARTESIAN_POINT('Ctrl Pts',(-18.0164459368403,8.79331790656224,23.));
#359=CARTESIAN_POINT('Ctrl Pts',(-18.9611315439339,6.51299035292953,23.));
#360=CARTESIAN_POINT('Ctrl Pts',(-19.3644689292801,5.22126270289323,23.));
#361=CARTESIAN_POINT('Ctrl Pts',(-19.8895863002055,2.58179396719995,23.));
#362=CARTESIAN_POINT('Ctrl Pts',(-20.0113651041545,1.23405264645998,23.));
#363=CARTESIAN_POINT('Ctrl Pts',(-20.0113651041545,-1.23405264645998,23.));
#364=CARTESIAN_POINT('Ctrl Pts',(-19.8895863002055,-2.58179396719995,23.));
#365=CARTESIAN_POINT('Ctrl Pts',(-19.3644689292801,-5.22126270289322,23.));
#366=CARTESIAN_POINT('Ctrl Pts',(-18.9611315439339,-6.51299035292953,23.));
#367=CARTESIAN_POINT('Ctrl Pts',(-18.0164459368403,-8.79331790656223,23.));
#368=CARTESIAN_POINT('Ctrl Pts',(-17.3880370518995,-9.99198740828785,23.));
#369=CARTESIAN_POINT('Ctrl Pts',(-15.8925305731119,-12.2298184138257,23.));
#370=CARTESIAN_POINT('Ctrl Pts',(-15.0254345770597,-13.268980985418,23.));
#371=CARTESIAN_POINT('Ctrl Pts',(-13.2797966984623,-15.014389420689,23.));
#372=CARTESIAN_POINT('Ctrl Pts',(-12.2404115900488,-15.8814234054901,23.));
#373=CARTESIAN_POINT('Ctrl Pts',(-10.0021634029212,-17.3767890022063,23.));
#374=CARTESIAN_POINT('Ctrl Pts',(-8.80330073541318,-18.0051212296102,23.));
#375=CARTESIAN_POINT('Ctrl Pts',(-6.52249407870673,-18.9497665404598,23.));
#376=CARTESIAN_POINT('Ctrl Pts',(-5.2304140867788,-19.3531060157216,23.));
#377=CARTESIAN_POINT('Ctrl Pts',(-2.59025307755577,-19.8782229201746,23.));
#378=CARTESIAN_POINT('Ctrl Pts',(-1.24217199077326,-20.,23.));
#379=CARTESIAN_POINT('Ctrl Pts',(1.22650079765508,-20.,23.));
#380=CARTESIAN_POINT('Ctrl Pts',(2.57453340403707,-19.8782318797971,23.));
#381=CARTESIAN_POINT('Ctrl Pts',(5.21459484122864,-19.3531309430428,23.));
#382=CARTESIAN_POINT('Ctrl Pts',(6.5066235269046,-18.9497973968001,23.));
#383=CARTESIAN_POINT('Ctrl Pts',(8.78726656620985,-18.0051728793679,23.));
#384=CARTESIAN_POINT('Ctrl Pts',(9.98600376653627,-17.376871286602,23.));
#385=CARTESIAN_POINT('Ctrl Pts',(12.2239964203246,-15.8815757906129,23.));
#386=CARTESIAN_POINT('Ctrl Pts',(13.2632514950782,-15.014581320581,23.));
#387=CARTESIAN_POINT('Ctrl Pts',(15.0086885005272,-13.2692234922309,23.));
#388=CARTESIAN_POINT('Ctrl Pts',(15.8756862927942,-12.2300715125042,23.));
#389=CARTESIAN_POINT('Ctrl Pts',(17.3710013324363,-9.9922798226017,23.));
#390=CARTESIAN_POINT('Ctrl Pts',(17.9993182129272,-8.79363986727023,23.));
#391=CARTESIAN_POINT('Ctrl Pts',(18.9439076680805,-6.51328816544598,23.));
#392=CARTESIAN_POINT('Ctrl Pts',(19.3472124465175,-5.2214935500886,23.));
#393=CARTESIAN_POINT('Ctrl Pts',(19.8722823901075,-2.58190053373507,23.));
#394=CARTESIAN_POINT('Ctrl Pts',(19.9940474081348,-1.23410210347255,23.));
#395=CARTESIAN_POINT('Ctrl Pts',(19.9940474081348,0.,23.));
#396=CARTESIAN_POINT('Origin',(-63.5,0.,86.));
#397=CARTESIAN_POINT('',(-63.,-2.51052593825207E-15,65.5));
#398=CARTESIAN_POINT('Origin',(-63.,0.,86.));
#399=CARTESIAN_POINT('',(-63.5,2.57175827820944E-15,65.));
#400=CARTESIAN_POINT('Origin',(-63.5,0.,86.));
#401=CARTESIAN_POINT('Origin',(-86.,0.,86.));
#402=CARTESIAN_POINT('',(-85.5,-2.57175827820944E-15,65.));
#403=CARTESIAN_POINT('Origin',(-85.5,0.,86.));
#404=CARTESIAN_POINT('Origin',(-63.,0.,86.));
#405=CARTESIAN_POINT('',(-63.,5.55111512312578E-16,105.994047408135));
#406=CARTESIAN_POINT('Ctrl Pts',(-63.,5.55111512312578E-16,105.994047408135));
#407=CARTESIAN_POINT('Ctrl Pts',(-63.,-1.23410210347254,105.994047408135));
#408=CARTESIAN_POINT('Ctrl Pts',(-63.,-2.58190053373507,105.872282390108));
#409=CARTESIAN_POINT('Ctrl Pts',(-63.,-5.22149355008859,105.347212446517));
#410=CARTESIAN_POINT('Ctrl Pts',(-63.,-6.51328816544598,104.94390766808));
#411=CARTESIAN_POINT('Ctrl Pts',(-63.,-8.79363986727023,103.999318212927));
#412=CARTESIAN_POINT('Ctrl Pts',(-63.,-9.99227982260173,103.371001332436));
#413=CARTESIAN_POINT('Ctrl Pts',(-63.,-12.2300715125042,101.875686292794));
#414=CARTESIAN_POINT('Ctrl Pts',(-63.,-13.2692234922309,101.008688500527));
#415=CARTESIAN_POINT('Ctrl Pts',(-63.,-15.014581320581,99.2632514950782));
#416=CARTESIAN_POINT('Ctrl Pts',(-63.,-15.8815757906129,98.2239964203246));
#417=CARTESIAN_POINT('Ctrl Pts',(-63.,-17.376871286602,95.9860037665363));
#418=CARTESIAN_POINT('Ctrl Pts',(-63.,-18.0051728793679,94.7872665662099));
#419=CARTESIAN_POINT('Ctrl Pts',(-63.,-18.9497973968001,92.5066235269046));
#420=CARTESIAN_POINT('Ctrl Pts',(-63.,-19.3531309430428,91.2145948412286));
#421=CARTESIAN_POINT('Ctrl Pts',(-63.,-19.8782318797971,88.5745334040371));
#422=CARTESIAN_POINT('Ctrl Pts',(-63.,-20.,87.2265007976551));
#423=CARTESIAN_POINT('Ctrl Pts',(-63.,-20.,84.7578280092267));
#424=CARTESIAN_POINT('Ctrl Pts',(-63.,-19.8782229201746,83.4097469224442));
#425=CARTESIAN_POINT('Ctrl Pts',(-63.,-19.3531060157216,80.7695859132212));
#426=CARTESIAN_POINT('Ctrl Pts',(-63.,-18.9497665404598,79.4775059212933));
#427=CARTESIAN_POINT('Ctrl Pts',(-63.,-18.0051212296102,77.1966992645868));
#428=CARTESIAN_POINT('Ctrl Pts',(-63.,-17.3767890022063,75.9978365970788));
#429=CARTESIAN_POINT('Ctrl Pts',(-63.,-15.8814234054901,73.7595884099512));
#430=CARTESIAN_POINT('Ctrl Pts',(-63.,-15.014389420689,72.7202033015377));
#431=CARTESIAN_POINT('Ctrl Pts',(-63.,-13.268980985418,70.9745654229403));
#432=CARTESIAN_POINT('Ctrl Pts',(-63.,-12.2298184138257,70.1074694268881));
#433=CARTESIAN_POINT('Ctrl Pts',(-63.,-9.99198740828785,68.6119629481005));
#434=CARTESIAN_POINT('Ctrl Pts',(-63.,-8.79331790656223,67.9835540631597));
#435=CARTESIAN_POINT('Ctrl Pts',(-63.,-6.51299035292953,67.0388684560661));
#436=CARTESIAN_POINT('Ctrl Pts',(-63.,-5.22126270289322,66.6355310707199));
#437=CARTESIAN_POINT('Ctrl Pts',(-63.,-2.58179396719994,66.1104136997945));
#438=CARTESIAN_POINT('Ctrl Pts',(-63.,-1.23405264645998,65.9886348958455));
#439=CARTESIAN_POINT('Ctrl Pts',(-63.,1.23405264645998,65.9886348958455));
#440=CARTESIAN_POINT('Ctrl Pts',(-63.,2.58179396719995,66.1104136997945));
#441=CARTESIAN_POINT('Ctrl Pts',(-63.,5.22126270289323,66.6355310707199));
#442=CARTESIAN_POINT('Ctrl Pts',(-63.,6.51299035292953,67.0388684560661));
#443=CARTESIAN_POINT('Ctrl Pts',(-63.,8.79331790656224,67.9835540631597));
#444=CARTESIAN_POINT('Ctrl Pts',(-63.,9.99198740828785,68.6119629481005));
#445=CARTESIAN_POINT('Ctrl Pts',(-63.,12.2298184138257,70.1074694268881));
#446=CARTESIAN_POINT('Ctrl Pts',(-63.,13.268980985418,70.9745654229403));
#447=CARTESIAN_POINT('Ctrl Pts',(-63.,15.0143894206891,72.7202033015377));
#448=CARTESIAN_POINT('Ctrl Pts',(-63.,15.8814234054901,73.7595884099512));
#449=CARTESIAN_POINT('Ctrl Pts',(-63.,17.3767890022063,75.9978365970788));
#450=CARTESIAN_POINT('Ctrl Pts',(-63.,18.0051212296102,77.1966992645868));
#451=CARTESIAN_POINT('Ctrl Pts',(-63.,18.9497665404598,79.4775059212933));
#452=CARTESIAN_POINT('Ctrl Pts',(-63.,19.3531060157216,80.7695859132212));
#453=CARTESIAN_POINT('Ctrl Pts',(-63.,19.8782229201746,83.4097469224442));
#454=CARTESIAN_POINT('Ctrl Pts',(-63.,20.,84.7578280092268));
#455=CARTESIAN_POINT('Ctrl Pts',(-63.,20.,87.2265007976551));
#456=CARTESIAN_POINT('Ctrl Pts',(-63.,19.8782318797971,88.5745334040371));
#457=CARTESIAN_POINT('Ctrl Pts',(-63.,19.3531309430428,91.2145948412286));
#458=CARTESIAN_POINT('Ctrl Pts',(-63.,18.9497973968001,92.5066235269046));
#459=CARTESIAN_POINT('Ctrl Pts',(-63.,18.0051728793679,94.7872665662099));
#460=CARTESIAN_POINT('Ctrl Pts',(-63.,17.376871286602,95.9860037665363));
#461=CARTESIAN_POINT('Ctrl Pts',(-63.,15.8815757906129,98.2239964203246));
#462=CARTESIAN_POINT('Ctrl Pts',(-63.,15.014581320581,99.2632514950782));
#463=CARTESIAN_POINT('Ctrl Pts',(-63.,13.2692234922309,101.008688500527));
#464=CARTESIAN_POINT('Ctrl Pts',(-63.,12.2300715125042,101.875686292794));
#465=CARTESIAN_POINT('Ctrl Pts',(-63.,9.99227982260171,103.371001332436));
#466=CARTESIAN_POINT('Ctrl Pts',(-63.,8.79363986727024,103.999318212927));
#467=CARTESIAN_POINT('Ctrl Pts',(-63.,6.51328816544598,104.943907668081));
#468=CARTESIAN_POINT('Ctrl Pts',(-63.,5.22149355008859,105.347212446517));
#469=CARTESIAN_POINT('Ctrl Pts',(-63.,2.58190053373506,105.872282390108));
#470=CARTESIAN_POINT('Ctrl Pts',(-63.,1.23410210347254,105.994047408135));
#471=CARTESIAN_POINT('Ctrl Pts',(-63.,5.55111512312578E-16,105.994047408135));
#472=CARTESIAN_POINT('Origin',(-85.5,0.,86.));
#473=CARTESIAN_POINT('',(-85.5,1.95943487863577E-15,70.));
#474=CARTESIAN_POINT('Origin',(-85.5,0.,86.));
#475=CARTESIAN_POINT('',(-86.,-2.02066721859313E-15,69.5));
#476=CARTESIAN_POINT('Origin',(-86.,0.,86.));
#477=CARTESIAN_POINT('Origin',(-86.,0.,86.));
#478=CARTESIAN_POINT('',(-86.,2.51052593825207E-15,65.5));
#479=CARTESIAN_POINT('Origin',(-86.,0.,86.));
#480=CARTESIAN_POINT('Origin',(-86.,0.,86.));
#481=CARTESIAN_POINT('',(-64.,1.95943487863577E-15,70.));
#482=CARTESIAN_POINT('Origin',(-64.,0.,86.));
#483=CARTESIAN_POINT('Origin',(0.,0.,0.5));
#484=CARTESIAN_POINT('',(-16.,-1.95943487863577E-15,0.5));
#485=CARTESIAN_POINT('Origin',(0.,0.,0.5));
#486=CARTESIAN_POINT('',(-16.5,2.02066721859313E-15,0.));
#487=CARTESIAN_POINT('Origin',(0.,0.,0.));
#488=CARTESIAN_POINT('Origin',(9.4425648294133E-16,0.,0.));
#489=CARTESIAN_POINT('',(-20.5,-2.51052593825207E-15,0.));
#490=CARTESIAN_POINT('Origin',(0.,0.,0.));
#491=CARTESIAN_POINT('Origin',(0.,0.,0.));
#492=CARTESIAN_POINT('',(-16.,1.95943487863577E-15,22.));
#493=CARTESIAN_POINT('Origin',(0.,0.,22.));
#494=CARTESIAN_POINT('Origin',(0.,0.,0.5));
#495=CARTESIAN_POINT('Origin',(-85.5,0.,86.));
#496=CARTESIAN_POINT('Origin',(-64.,0.,22.));
#497=CARTESIAN_POINT('',(15.,1.83697019872103E-15,22.));
#498=CARTESIAN_POINT('Origin',(0.,0.,22.));
#499=CARTESIAN_POINT('',(-64.,1.83697019872103E-15,101.));
#500=CARTESIAN_POINT('Origin',(-64.,0.,86.));
#501=CARTESIAN_POINT('Origin',(-64.,-2.31296463463574E-16,86.));
#502=CARTESIAN_POINT('Origin',(1.55106502066776E-15,-2.31296463463574E-16,
22.));
#503=CARTESIAN_POINT('Origin',(-64.,0.,22.));
#504=UNCERTAINTY_MEASURE_WITH_UNIT(LENGTH_MEASURE(0.01),#508,
'DISTANCE_ACCURACY_VALUE',
'Maximum model space distance between geometric entities at asserted c
onnectivities');
#505=UNCERTAINTY_MEASURE_WITH_UNIT(LENGTH_MEASURE(1.E-6),#508,
'DISTANCE_ACCURACY_VALUE',
'Maximum model space distance between geometric entities at asserted c
onnectivities');
#506=(
GEOMETRIC_REPRESENTATION_CONTEXT(3)
GLOBAL_UNCERTAINTY_ASSIGNED_CONTEXT((#504))
GLOBAL_UNIT_ASSIGNED_CONTEXT((#508,#511,#509))
REPRESENTATION_CONTEXT('','3D')
);
#507=(
GEOMETRIC_REPRESENTATION_CONTEXT(3)
GLOBAL_UNCERTAINTY_ASSIGNED_CONTEXT((#505))
GLOBAL_UNIT_ASSIGNED_CONTEXT((#508,#511,#509))
REPRESENTATION_CONTEXT('','3D')
);
#508=(
LENGTH_UNIT()
NAMED_UNIT(*)
SI_UNIT(.MILLI.,.METRE.)
);
#509=(
NAMED_UNIT(*)
SI_UNIT($,.STERADIAN.)
SOLID_ANGLE_UNIT()
);
#510=DIMENSIONAL_EXPONENTS(0.,0.,0.,0.,0.,0.,0.);
#511=(
CONVERSION_BASED_UNIT('degree',#513)
NAMED_UNIT(#510)
PLANE_ANGLE_UNIT()
);
#512=(
NAMED_UNIT(*)
PLANE_ANGLE_UNIT()
SI_UNIT($,.RADIAN.)
);
#513=PLANE_ANGLE_MEASURE_WITH_UNIT(PLANE_ANGLE_MEASURE(0.01745329252),#512);
#514=SHAPE_DEFINITION_REPRESENTATION(#515,#516);
#515=PRODUCT_DEFINITION_SHAPE('',$,#518);
#516=SHAPE_REPRESENTATION('',(#214),#506);
#517=PRODUCT_DEFINITION_CONTEXT('part definition',#522,'design');
#518=PRODUCT_DEFINITION('BE300320','BE30',#519,#517);
#519=PRODUCT_DEFINITION_FORMATION('',$,#524);
#520=PRODUCT_RELATED_PRODUCT_CATEGORY('BE30','BE30',(#524));
#521=APPLICATION_PROTOCOL_DEFINITION('international standard',
'automotive_design',2009,#522);
#522=APPLICATION_CONTEXT(
'Core Data for Automotive Mechanical Design Process');
#523=PRODUCT_CONTEXT('part definition',#522,'mechanical');
#524=PRODUCT('BE300320','BE30',$,(#523));
#525=PRESENTATION_STYLE_ASSIGNMENT((#526));
#526=SURFACE_STYLE_USAGE(.BOTH.,#527);
#527=SURFACE_SIDE_STYLE('',(#528));
#528=SURFACE_STYLE_FILL_AREA(#529);
#529=FILL_AREA_STYLE('',(#530));
#530=FILL_AREA_STYLE_COLOUR('',#531);
#531=COLOUR_RGB('',0.8,0.8,0.8);
ENDSEC;
END-ISO-10303-21;
