ISO-10303-21;
HEADER;
/* Generated by software containing ST-Developer
 * from STEP Tools, Inc. (www.steptools.com) 
 */

FILE_DESCRIPTION(
/* description */ (''),
/* implementation_level */ '2;1');

FILE_NAME(
/* name */ 'C:\\Users\\Gabriele\\Desktop\\catalogo\\BE30\\BE300500.stp',

/* time_stamp */ '2016-10-17T14:44:45+02:00',
/* author */ ('Gabriele'),
/* organization */ (''),
/* preprocessor_version */ 'ST-DEVELOPER v16.5',
/* originating_system */ 'Autodesk Inventor 2017',
/* authorisation */ '');

FILE_SCHEMA (('AUTOMOTIVE_DESIGN { 1 0 10303 214 3 1 1 }'));
ENDSEC;

DATA;
#10=MECHANICAL_DESIGN_GEOMETRIC_PRESENTATION_REPRESENTATION('',(#13),#507);
#11=SHAPE_REPRESENTATION_RELATIONSHIP('SRR','None',#516,#12);
#12=ADVANCED_BREP_SHAPE_REPRESENTATION('',(#14),#506);
#13=STYLED_ITEM('',(#525),#14);
#14=MANIFOLD_SOLID_BREP('Solido1',#213);
#15=B_SPLINE_CURVE_WITH_KNOTS('',3,(#330,#331,#332,#333,#334,#335,#336,
#337,#338,#339,#340,#341,#342,#343,#344,#345,#346,#347,#348,#349,#350,#351,
#352,#353,#354,#355,#356,#357,#358,#359,#360,#361,#362,#363,#364,#365,#366,
#367,#368,#369,#370,#371,#372,#373,#374,#375,#376,#377,#378,#379,#380,#381,
#382,#383,#384,#385,#386,#387,#388,#389,#390,#391,#392,#393,#394,#395),
 .UNSPECIFIED.,.T.,.F.,(4,2,2,2,2,2,2,2,2,2,2,2,2,2,2,2,2,2,2,2,2,2,2,2,
2,2,2,2,2,2,2,2,4),(0.,0.564610684586027,1.12922136917205,1.69384054440249,
2.25845971963292,2.82309226564635,3.38772481165977,3.95237528863446,4.51702576560916,
5.08168451240928,5.6463432592094,6.21099653750176,6.77564981579412,7.34028057298429,
7.90491133017446,8.46951304554477,9.03411476091508,9.59871647628539,10.1633181916557,
10.7279489488459,11.292579706036,11.8572329843284,12.4218862626208,12.9865450094209,
13.551203756221,14.1158542331957,14.6805047101704,15.2451372561838,15.8097698021972,
16.3743889774277,16.9390081526581,17.5036188372441,18.0682295218302),
 .UNSPECIFIED.);
#16=B_SPLINE_CURVE_WITH_KNOTS('',3,(#406,#407,#408,#409,#410,#411,#412,
#413,#414,#415,#416,#417,#418,#419,#420,#421,#422,#423,#424,#425,#426,#427,
#428,#429,#430,#431,#432,#433,#434,#435,#436,#437,#438,#439,#440,#441,#442,
#443,#444,#445,#446,#447,#448,#449,#450,#451,#452,#453,#454,#455,#456,#457,
#458,#459,#460,#461,#462,#463,#464,#465,#466,#467,#468,#469,#470,#471),
 .UNSPECIFIED.,.T.,.F.,(4,2,2,2,2,2,2,2,2,2,2,2,2,2,2,2,2,2,2,2,2,2,2,2,
2,2,2,2,2,2,2,2,4),(0.,0.564610684586027,1.12922136917205,1.69384054440249,
2.25845971963292,2.82309226564635,3.38772481165977,3.95237528863446,4.51702576560916,
5.08168451240928,5.6463432592094,6.21099653750176,6.77564981579412,7.34028057298429,
7.90491133017446,8.46951304554477,9.03411476091508,9.59871647628539,10.1633181916557,
10.7279489488459,11.292579706036,11.8572329843284,12.4218862626208,12.9865450094209,
13.551203756221,14.1158542331957,14.6805047101704,15.2451372561838,15.8097698021972,
16.3743889774277,16.9390081526581,17.5036188372441,18.0682295218302),
 .UNSPECIFIED.);
#17=PLANE('',#220);
#18=PLANE('',#226);
#19=PLANE('',#230);
#20=PLANE('',#237);
#21=PLANE('',#246);
#22=PLANE('',#247);
#23=CYLINDRICAL_SURFACE('',#218,31.5);
#24=CYLINDRICAL_SURFACE('',#224,31.5);
#25=CYLINDRICAL_SURFACE('',#232,25.);
#26=CYLINDRICAL_SURFACE('',#239,25.);
#27=FACE_BOUND('',#64,.T.);
#28=FACE_BOUND('',#66,.T.);
#29=FACE_BOUND('',#68,.T.);
#30=FACE_BOUND('',#70,.T.);
#31=FACE_BOUND('',#72,.T.);
#32=FACE_BOUND('',#74,.T.);
#33=FACE_BOUND('',#76,.T.);
#34=FACE_BOUND('',#78,.T.);
#35=FACE_BOUND('',#80,.T.);
#36=FACE_BOUND('',#82,.T.);
#37=FACE_BOUND('',#84,.T.);
#38=FACE_BOUND('',#86,.T.);
#39=FACE_BOUND('',#88,.T.);
#40=FACE_BOUND('',#90,.T.);
#41=FACE_BOUND('',#92,.T.);
#42=FACE_BOUND('',#94,.T.);
#43=FACE_BOUND('',#96,.T.);
#44=FACE_BOUND('',#98,.T.);
#45=FACE_OUTER_BOUND('',#63,.T.);
#46=FACE_OUTER_BOUND('',#65,.T.);
#47=FACE_OUTER_BOUND('',#67,.T.);
#48=FACE_OUTER_BOUND('',#69,.T.);
#49=FACE_OUTER_BOUND('',#71,.T.);
#50=FACE_OUTER_BOUND('',#73,.T.);
#51=FACE_OUTER_BOUND('',#75,.T.);
#52=FACE_OUTER_BOUND('',#77,.T.);
#53=FACE_OUTER_BOUND('',#79,.T.);
#54=FACE_OUTER_BOUND('',#81,.T.);
#55=FACE_OUTER_BOUND('',#83,.T.);
#56=FACE_OUTER_BOUND('',#85,.T.);
#57=FACE_OUTER_BOUND('',#87,.T.);
#58=FACE_OUTER_BOUND('',#89,.T.);
#59=FACE_OUTER_BOUND('',#91,.T.);
#60=FACE_OUTER_BOUND('',#93,.T.);
#61=FACE_OUTER_BOUND('',#95,.T.);
#62=FACE_OUTER_BOUND('',#97,.T.);
#63=EDGE_LOOP('',(#151));
#64=EDGE_LOOP('',(#152));
#65=EDGE_LOOP('',(#153));
#66=EDGE_LOOP('',(#154));
#67=EDGE_LOOP('',(#155));
#68=EDGE_LOOP('',(#156));
#69=EDGE_LOOP('',(#157));
#70=EDGE_LOOP('',(#158));
#71=EDGE_LOOP('',(#159));
#72=EDGE_LOOP('',(#160));
#73=EDGE_LOOP('',(#161));
#74=EDGE_LOOP('',(#162));
#75=EDGE_LOOP('',(#163));
#76=EDGE_LOOP('',(#164));
#77=EDGE_LOOP('',(#165));
#78=EDGE_LOOP('',(#166));
#79=EDGE_LOOP('',(#167));
#80=EDGE_LOOP('',(#168));
#81=EDGE_LOOP('',(#169));
#82=EDGE_LOOP('',(#170));
#83=EDGE_LOOP('',(#171));
#84=EDGE_LOOP('',(#172));
#85=EDGE_LOOP('',(#173));
#86=EDGE_LOOP('',(#174));
#87=EDGE_LOOP('',(#175));
#88=EDGE_LOOP('',(#176));
#89=EDGE_LOOP('',(#177));
#90=EDGE_LOOP('',(#178));
#91=EDGE_LOOP('',(#179));
#92=EDGE_LOOP('',(#180));
#93=EDGE_LOOP('',(#181));
#94=EDGE_LOOP('',(#182));
#95=EDGE_LOOP('',(#183));
#96=EDGE_LOOP('',(#184));
#97=EDGE_LOOP('',(#185));
#98=EDGE_LOOP('',(#186));
#99=CIRCLE('',#216,31.5);
#100=CIRCLE('',#217,31.);
#101=CIRCLE('',#219,31.5);
#102=CIRCLE('',#222,31.);
#103=CIRCLE('',#223,31.5);
#104=CIRCLE('',#225,31.5);
#105=CIRCLE('',#228,25.);
#106=CIRCLE('',#229,25.5);
#107=CIRCLE('',#231,31.);
#108=CIRCLE('',#233,25.);
#109=CIRCLE('',#235,25.);
#110=CIRCLE('',#236,25.5);
#111=CIRCLE('',#238,31.);
#112=CIRCLE('',#240,25.);
#113=CIRCLE('',#244,24.);
#114=CIRCLE('',#245,24.);
#115=VERTEX_POINT('',#321);
#116=VERTEX_POINT('',#323);
#117=VERTEX_POINT('',#326);
#118=VERTEX_POINT('',#329);
#119=VERTEX_POINT('',#397);
#120=VERTEX_POINT('',#399);
#121=VERTEX_POINT('',#402);
#122=VERTEX_POINT('',#405);
#123=VERTEX_POINT('',#473);
#124=VERTEX_POINT('',#475);
#125=VERTEX_POINT('',#478);
#126=VERTEX_POINT('',#481);
#127=VERTEX_POINT('',#484);
#128=VERTEX_POINT('',#486);
#129=VERTEX_POINT('',#489);
#130=VERTEX_POINT('',#492);
#131=VERTEX_POINT('',#497);
#132=VERTEX_POINT('',#499);
#133=EDGE_CURVE('',#115,#115,#99,.T.);
#134=EDGE_CURVE('',#116,#116,#100,.T.);
#135=EDGE_CURVE('',#117,#117,#101,.T.);
#136=EDGE_CURVE('',#118,#118,#15,.T.);
#137=EDGE_CURVE('',#119,#119,#102,.T.);
#138=EDGE_CURVE('',#120,#120,#103,.T.);
#139=EDGE_CURVE('',#121,#121,#104,.T.);
#140=EDGE_CURVE('',#122,#122,#16,.T.);
#141=EDGE_CURVE('',#123,#123,#105,.T.);
#142=EDGE_CURVE('',#124,#124,#106,.T.);
#143=EDGE_CURVE('',#125,#125,#107,.T.);
#144=EDGE_CURVE('',#126,#126,#108,.T.);
#145=EDGE_CURVE('',#127,#127,#109,.T.);
#146=EDGE_CURVE('',#128,#128,#110,.T.);
#147=EDGE_CURVE('',#129,#129,#111,.T.);
#148=EDGE_CURVE('',#130,#130,#112,.T.);
#149=EDGE_CURVE('',#131,#131,#113,.T.);
#150=EDGE_CURVE('',#132,#132,#114,.T.);
#151=ORIENTED_EDGE('',*,*,#133,.T.);
#152=ORIENTED_EDGE('',*,*,#134,.T.);
#153=ORIENTED_EDGE('',*,*,#135,.F.);
#154=ORIENTED_EDGE('',*,*,#133,.F.);
#155=ORIENTED_EDGE('',*,*,#134,.F.);
#156=ORIENTED_EDGE('',*,*,#136,.F.);
#157=ORIENTED_EDGE('',*,*,#137,.T.);
#158=ORIENTED_EDGE('',*,*,#138,.T.);
#159=ORIENTED_EDGE('',*,*,#139,.F.);
#160=ORIENTED_EDGE('',*,*,#138,.F.);
#161=ORIENTED_EDGE('',*,*,#137,.F.);
#162=ORIENTED_EDGE('',*,*,#140,.F.);
#163=ORIENTED_EDGE('',*,*,#141,.T.);
#164=ORIENTED_EDGE('',*,*,#142,.T.);
#165=ORIENTED_EDGE('',*,*,#143,.F.);
#166=ORIENTED_EDGE('',*,*,#142,.F.);
#167=ORIENTED_EDGE('',*,*,#144,.F.);
#168=ORIENTED_EDGE('',*,*,#141,.F.);
#169=ORIENTED_EDGE('',*,*,#145,.T.);
#170=ORIENTED_EDGE('',*,*,#146,.T.);
#171=ORIENTED_EDGE('',*,*,#147,.F.);
#172=ORIENTED_EDGE('',*,*,#146,.F.);
#173=ORIENTED_EDGE('',*,*,#148,.T.);
#174=ORIENTED_EDGE('',*,*,#145,.F.);
#175=ORIENTED_EDGE('',*,*,#147,.T.);
#176=ORIENTED_EDGE('',*,*,#135,.T.);
#177=ORIENTED_EDGE('',*,*,#139,.T.);
#178=ORIENTED_EDGE('',*,*,#143,.T.);
#179=ORIENTED_EDGE('',*,*,#149,.F.);
#180=ORIENTED_EDGE('',*,*,#150,.F.);
#181=ORIENTED_EDGE('',*,*,#144,.T.);
#182=ORIENTED_EDGE('',*,*,#150,.T.);
#183=ORIENTED_EDGE('',*,*,#148,.F.);
#184=ORIENTED_EDGE('',*,*,#149,.T.);
#185=ORIENTED_EDGE('',*,*,#140,.T.);
#186=ORIENTED_EDGE('',*,*,#136,.T.);
#187=TOROIDAL_SURFACE('',#215,31.,0.5);
#188=TOROIDAL_SURFACE('',#221,31.,0.5);
#189=TOROIDAL_SURFACE('',#227,25.5,0.5);
#190=TOROIDAL_SURFACE('',#234,25.5,0.5);
#191=TOROIDAL_SURFACE('',#241,31.,0.5);
#192=TOROIDAL_SURFACE('',#242,31.,0.5);
#193=TOROIDAL_SURFACE('',#243,100.,24.);
#194=TOROIDAL_SURFACE('',#248,100.,30.5);
#195=ADVANCED_FACE('',(#45,#27),#187,.T.);
#196=ADVANCED_FACE('',(#46,#28),#23,.T.);
#197=ADVANCED_FACE('',(#47,#29),#17,.T.);
#198=ADVANCED_FACE('',(#48,#30),#188,.T.);
#199=ADVANCED_FACE('',(#49,#31),#24,.T.);
#200=ADVANCED_FACE('',(#50,#32),#18,.F.);
#201=ADVANCED_FACE('',(#51,#33),#189,.T.);
#202=ADVANCED_FACE('',(#52,#34),#19,.T.);
#203=ADVANCED_FACE('',(#53,#35),#25,.F.);
#204=ADVANCED_FACE('',(#54,#36),#190,.T.);
#205=ADVANCED_FACE('',(#55,#37),#20,.F.);
#206=ADVANCED_FACE('',(#56,#38),#26,.F.);
#207=ADVANCED_FACE('',(#57,#39),#191,.T.);
#208=ADVANCED_FACE('',(#58,#40),#192,.T.);
#209=ADVANCED_FACE('',(#59,#41),#193,.F.);
#210=ADVANCED_FACE('',(#60,#42),#21,.T.);
#211=ADVANCED_FACE('',(#61,#43),#22,.F.);
#212=ADVANCED_FACE('',(#62,#44),#194,.T.);
#213=CLOSED_SHELL('',(#195,#196,#197,#198,#199,#200,#201,#202,#203,#204,
#205,#206,#207,#208,#209,#210,#211,#212));
#214=AXIS2_PLACEMENT_3D('placement',#319,#249,#250);
#215=AXIS2_PLACEMENT_3D('',#320,#251,#252);
#216=AXIS2_PLACEMENT_3D('',#322,#253,#254);
#217=AXIS2_PLACEMENT_3D('',#324,#255,#256);
#218=AXIS2_PLACEMENT_3D('',#325,#257,#258);
#219=AXIS2_PLACEMENT_3D('',#327,#259,#260);
#220=AXIS2_PLACEMENT_3D('',#328,#261,#262);
#221=AXIS2_PLACEMENT_3D('',#396,#263,#264);
#222=AXIS2_PLACEMENT_3D('',#398,#265,#266);
#223=AXIS2_PLACEMENT_3D('',#400,#267,#268);
#224=AXIS2_PLACEMENT_3D('',#401,#269,#270);
#225=AXIS2_PLACEMENT_3D('',#403,#271,#272);
#226=AXIS2_PLACEMENT_3D('',#404,#273,#274);
#227=AXIS2_PLACEMENT_3D('',#472,#275,#276);
#228=AXIS2_PLACEMENT_3D('',#474,#277,#278);
#229=AXIS2_PLACEMENT_3D('',#476,#279,#280);
#230=AXIS2_PLACEMENT_3D('',#477,#281,#282);
#231=AXIS2_PLACEMENT_3D('',#479,#283,#284);
#232=AXIS2_PLACEMENT_3D('',#480,#285,#286);
#233=AXIS2_PLACEMENT_3D('',#482,#287,#288);
#234=AXIS2_PLACEMENT_3D('',#483,#289,#290);
#235=AXIS2_PLACEMENT_3D('',#485,#291,#292);
#236=AXIS2_PLACEMENT_3D('',#487,#293,#294);
#237=AXIS2_PLACEMENT_3D('',#488,#295,#296);
#238=AXIS2_PLACEMENT_3D('',#490,#297,#298);
#239=AXIS2_PLACEMENT_3D('',#491,#299,#300);
#240=AXIS2_PLACEMENT_3D('',#493,#301,#302);
#241=AXIS2_PLACEMENT_3D('',#494,#303,#304);
#242=AXIS2_PLACEMENT_3D('',#495,#305,#306);
#243=AXIS2_PLACEMENT_3D('',#496,#307,#308);
#244=AXIS2_PLACEMENT_3D('',#498,#309,#310);
#245=AXIS2_PLACEMENT_3D('',#500,#311,#312);
#246=AXIS2_PLACEMENT_3D('',#501,#313,#314);
#247=AXIS2_PLACEMENT_3D('',#502,#315,#316);
#248=AXIS2_PLACEMENT_3D('',#503,#317,#318);
#249=DIRECTION('axis',(0.,0.,1.));
#250=DIRECTION('refdir',(1.,0.,0.));
#251=DIRECTION('center_axis',(0.,0.,1.));
#252=DIRECTION('ref_axis',(1.,0.,0.));
#253=DIRECTION('center_axis',(0.,0.,1.));
#254=DIRECTION('ref_axis',(1.,0.,0.));
#255=DIRECTION('center_axis',(0.,0.,-1.));
#256=DIRECTION('ref_axis',(1.,0.,0.));
#257=DIRECTION('center_axis',(0.,0.,1.));
#258=DIRECTION('ref_axis',(1.,0.,0.));
#259=DIRECTION('center_axis',(0.,0.,-1.));
#260=DIRECTION('ref_axis',(1.,0.,0.));
#261=DIRECTION('center_axis',(0.,0.,1.));
#262=DIRECTION('ref_axis',(1.,0.,0.));
#263=DIRECTION('center_axis',(-1.,0.,-2.22044604925031E-16));
#264=DIRECTION('ref_axis',(0.,0.,1.));
#265=DIRECTION('center_axis',(-1.,0.,-2.22044604925031E-16));
#266=DIRECTION('ref_axis',(-2.22044604925031E-16,0.,1.));
#267=DIRECTION('center_axis',(1.,0.,2.22044604925031E-16));
#268=DIRECTION('ref_axis',(-2.22485169617343E-16,0.,1.));
#269=DIRECTION('center_axis',(-1.,0.,-2.22044604925031E-16));
#270=DIRECTION('ref_axis',(-2.22044604925031E-16,0.,1.));
#271=DIRECTION('center_axis',(-1.,0.,6.12323399573677E-17));
#272=DIRECTION('ref_axis',(6.16790569236198E-17,0.,1.));
#273=DIRECTION('center_axis',(-1.,0.,-2.22044604925031E-16));
#274=DIRECTION('ref_axis',(0.,0.,1.));
#275=DIRECTION('center_axis',(1.,0.,-6.12323399573677E-17));
#276=DIRECTION('ref_axis',(0.,0.,-1.));
#277=DIRECTION('center_axis',(1.,0.,-6.12323399573677E-17));
#278=DIRECTION('ref_axis',(6.10622663543836E-17,0.,1.));
#279=DIRECTION('center_axis',(-1.,0.,6.12323399573677E-17));
#280=DIRECTION('ref_axis',(6.12323399573676E-17,0.,1.));
#281=DIRECTION('center_axis',(-1.,0.,6.12323399573677E-17));
#282=DIRECTION('ref_axis',(0.,0.,1.));
#283=DIRECTION('center_axis',(1.,0.,-6.12323399573677E-17));
#284=DIRECTION('ref_axis',(6.12323399573676E-17,0.,1.));
#285=DIRECTION('center_axis',(-1.,0.,-2.22044604925031E-16));
#286=DIRECTION('ref_axis',(-2.22044604925031E-16,0.,1.));
#287=DIRECTION('center_axis',(-1.,0.,-2.22044604925031E-16));
#288=DIRECTION('ref_axis',(-2.22044604925031E-16,0.,1.));
#289=DIRECTION('center_axis',(0.,0.,1.));
#290=DIRECTION('ref_axis',(1.,0.,0.));
#291=DIRECTION('center_axis',(0.,0.,1.));
#292=DIRECTION('ref_axis',(1.,0.,0.));
#293=DIRECTION('center_axis',(0.,0.,-1.));
#294=DIRECTION('ref_axis',(1.,0.,0.));
#295=DIRECTION('center_axis',(0.,0.,1.));
#296=DIRECTION('ref_axis',(1.,0.,0.));
#297=DIRECTION('center_axis',(0.,0.,1.));
#298=DIRECTION('ref_axis',(1.,0.,0.));
#299=DIRECTION('center_axis',(0.,0.,1.));
#300=DIRECTION('ref_axis',(1.,0.,0.));
#301=DIRECTION('center_axis',(0.,0.,1.));
#302=DIRECTION('ref_axis',(1.,0.,0.));
#303=DIRECTION('center_axis',(0.,0.,1.));
#304=DIRECTION('ref_axis',(1.,0.,0.));
#305=DIRECTION('center_axis',(-1.,0.,6.12323399573677E-17));
#306=DIRECTION('ref_axis',(0.,0.,1.));
#307=DIRECTION('center_axis',(0.,1.,0.));
#308=DIRECTION('ref_axis',(0.,0.,1.));
#309=DIRECTION('center_axis',(0.,0.,1.));
#310=DIRECTION('ref_axis',(-1.,0.,0.));
#311=DIRECTION('center_axis',(1.,0.,2.22044604925031E-16));
#312=DIRECTION('ref_axis',(-2.22044604925031E-16,0.,1.));
#313=DIRECTION('center_axis',(-1.,0.,-2.22044604925031E-16));
#314=DIRECTION('ref_axis',(0.,0.,1.));
#315=DIRECTION('center_axis',(0.,0.,1.));
#316=DIRECTION('ref_axis',(1.,0.,0.));
#317=DIRECTION('center_axis',(0.,-1.,0.));
#318=DIRECTION('ref_axis',(0.,0.,-1.));
#319=CARTESIAN_POINT('',(0.,0.,0.));
#320=CARTESIAN_POINT('Origin',(0.,0.,31.5));
#321=CARTESIAN_POINT('',(-31.5,-3.85763741731416E-15,31.5));
#322=CARTESIAN_POINT('Origin',(0.,0.,31.5));
#323=CARTESIAN_POINT('',(-31.,3.7964050773568E-15,32.));
#324=CARTESIAN_POINT('Origin',(0.,0.,32.));
#325=CARTESIAN_POINT('Origin',(0.,0.,0.));
#326=CARTESIAN_POINT('',(-31.5,3.85763741731416E-15,0.5));
#327=CARTESIAN_POINT('Origin',(0.,0.,0.5));
#328=CARTESIAN_POINT('Origin',(3.14108381557023E-15,-4.69935671799008E-16,
32.));
#329=CARTESIAN_POINT('',(30.4961685261295,-5.55111512312578E-16,32.));
#330=CARTESIAN_POINT('Ctrl Pts',(30.4961685261295,-5.55111512312578E-16,
32.));
#331=CARTESIAN_POINT('Ctrl Pts',(30.4961685261295,1.88203561528676,32.));
#332=CARTESIAN_POINT('Ctrl Pts',(30.3104787874335,3.93746168185847,32.));
#333=CARTESIAN_POINT('Ctrl Pts',(29.5097531936666,7.96291024924636,32.));
#334=CARTESIAN_POINT('Ctrl Pts',(28.8947174321955,9.932932768681,32.));
#335=CARTESIAN_POINT('Ctrl Pts',(27.4542389919512,13.410499037701,32.));
#336=CARTESIAN_POINT('Ctrl Pts',(26.4960809134537,15.2384262199287,32.));
#337=CARTESIAN_POINT('Ctrl Pts',(24.2157806549146,18.651070081298,32.));
#338=CARTESIAN_POINT('Ctrl Pts',(22.8936387074782,20.2357869158645,32.));
#339=CARTESIAN_POINT('Ctrl Pts',(20.2319418719853,22.8974337451909,32.));
#340=CARTESIAN_POINT('Ctrl Pts',(18.6471601183869,24.2195734621181,32.));
#341=CARTESIAN_POINT('Ctrl Pts',(15.2343897587878,26.4998611786043,32.));
#342=CARTESIAN_POINT('Ctrl Pts',(13.406401391047,27.4580095347525,32.));
#343=CARTESIAN_POINT('Ctrl Pts',(9.92865230539836,28.8985096900361,32.));
#344=CARTESIAN_POINT('Ctrl Pts',(7.95848307038335,29.5135633748381,32.));
#345=CARTESIAN_POINT('Ctrl Pts',(3.93274093850194,30.3143083037322,32.));
#346=CARTESIAN_POINT('Ctrl Pts',(1.87716813157606,30.5,32.));
#347=CARTESIAN_POINT('Ctrl Pts',(-1.88719594767332,30.5,32.));
#348=CARTESIAN_POINT('Ctrl Pts',(-3.94279829567597,30.3143028447824,32.));
#349=CARTESIAN_POINT('Ctrl Pts',(-7.96860109846037,29.513548185491,32.));
#350=CARTESIAN_POINT('Ctrl Pts',(-9.93880159405322,28.8984908865955,32.));
#351=CARTESIAN_POINT('Ctrl Pts',(-13.4166500985163,27.4579781298205,32.));
#352=CARTESIAN_POINT('Ctrl Pts',(-15.2447146347394,26.4998112357192,32.));
#353=CARTESIAN_POINT('Ctrl Pts',(-18.6576401158808,24.2194810676276,32.));
#354=CARTESIAN_POINT('Ctrl Pts',(-20.2425007991908,22.8973174020933,32.));
#355=CARTESIAN_POINT('Ctrl Pts',(-22.9043193733662,20.235639982304,32.));
#356=CARTESIAN_POINT('Ctrl Pts',(-24.2265207376538,18.6509168571526,32.));
#357=CARTESIAN_POINT('Ctrl Pts',(-26.5069367632489,15.2382493976034,32.));
#358=CARTESIAN_POINT('Ctrl Pts',(-27.4651504465474,13.4103044096795,32.));
#359=CARTESIAN_POINT('Ctrl Pts',(-28.9056869686563,9.9327527731152,32.));
#360=CARTESIAN_POINT('Ctrl Pts',(-29.5207423950873,7.96277072335713,32.));
#361=CARTESIAN_POINT('Ctrl Pts',(-30.3214965755151,3.93739726661919,32.));
#362=CARTESIAN_POINT('Ctrl Pts',(-30.5071946169965,1.88200571790103,32.));
#363=CARTESIAN_POINT('Ctrl Pts',(-30.5071946169965,-1.88200571790102,32.));
#364=CARTESIAN_POINT('Ctrl Pts',(-30.3214965755151,-3.93739726661918,32.));
#365=CARTESIAN_POINT('Ctrl Pts',(-29.5207423950873,-7.96277072335712,32.));
#366=CARTESIAN_POINT('Ctrl Pts',(-28.9056869686563,-9.93275277311519,32.));
#367=CARTESIAN_POINT('Ctrl Pts',(-27.4651504465474,-13.4103044096795,32.));
#368=CARTESIAN_POINT('Ctrl Pts',(-26.506936763249,-15.2382493976034,32.));
#369=CARTESIAN_POINT('Ctrl Pts',(-24.2265207376538,-18.6509168571526,32.));
#370=CARTESIAN_POINT('Ctrl Pts',(-22.9043193733662,-20.235639982304,32.));
#371=CARTESIAN_POINT('Ctrl Pts',(-20.2425007991909,-22.8973174020933,32.));
#372=CARTESIAN_POINT('Ctrl Pts',(-18.6576401158808,-24.2194810676276,32.));
#373=CARTESIAN_POINT('Ctrl Pts',(-15.2447146347394,-26.4998112357192,32.));
#374=CARTESIAN_POINT('Ctrl Pts',(-13.4166500985163,-27.4579781298205,32.));
#375=CARTESIAN_POINT('Ctrl Pts',(-9.93880159405322,-28.8984908865955,32.));
#376=CARTESIAN_POINT('Ctrl Pts',(-7.96860109846037,-29.513548185491,32.));
#377=CARTESIAN_POINT('Ctrl Pts',(-3.94279829567597,-30.3143028447824,32.));
#378=CARTESIAN_POINT('Ctrl Pts',(-1.88719594767332,-30.5,32.));
#379=CARTESIAN_POINT('Ctrl Pts',(1.87716813157606,-30.5,32.));
#380=CARTESIAN_POINT('Ctrl Pts',(3.93274093850193,-30.3143083037322,32.));
#381=CARTESIAN_POINT('Ctrl Pts',(7.95848307038334,-29.5135633748381,32.));
#382=CARTESIAN_POINT('Ctrl Pts',(9.92865230539836,-28.8985096900361,32.));
#383=CARTESIAN_POINT('Ctrl Pts',(13.406401391047,-27.4580095347525,32.));
#384=CARTESIAN_POINT('Ctrl Pts',(15.2343897587878,-26.4998611786043,32.));
#385=CARTESIAN_POINT('Ctrl Pts',(18.6471601183869,-24.2195734621181,32.));
#386=CARTESIAN_POINT('Ctrl Pts',(20.2319418719853,-22.8974337451909,32.));
#387=CARTESIAN_POINT('Ctrl Pts',(22.8936387074782,-20.2357869158645,32.));
#388=CARTESIAN_POINT('Ctrl Pts',(24.2157806549146,-18.651070081298,32.));
#389=CARTESIAN_POINT('Ctrl Pts',(26.4960809134537,-15.2384262199287,32.));
#390=CARTESIAN_POINT('Ctrl Pts',(27.4542389919512,-13.410499037701,32.));
#391=CARTESIAN_POINT('Ctrl Pts',(28.8947174321955,-9.93293276868098,32.));
#392=CARTESIAN_POINT('Ctrl Pts',(29.5097531936666,-7.96291024924634,32.));
#393=CARTESIAN_POINT('Ctrl Pts',(30.3104787874335,-3.93746168185846,32.));
#394=CARTESIAN_POINT('Ctrl Pts',(30.4961685261295,-1.88203561528675,32.));
#395=CARTESIAN_POINT('Ctrl Pts',(30.4961685261295,0.,32.));
#396=CARTESIAN_POINT('Origin',(-99.5,0.,131.));
#397=CARTESIAN_POINT('',(-99.,-3.7964050773568E-15,100.));
#398=CARTESIAN_POINT('Origin',(-99.,0.,131.));
#399=CARTESIAN_POINT('',(-99.5,3.85763741731416E-15,99.5));
#400=CARTESIAN_POINT('Origin',(-99.5,0.,131.));
#401=CARTESIAN_POINT('Origin',(-131.,0.,131.));
#402=CARTESIAN_POINT('',(-130.5,-3.85763741731416E-15,99.5));
#403=CARTESIAN_POINT('Origin',(-130.5,0.,131.));
#404=CARTESIAN_POINT('Origin',(-99.,-4.69935671799008E-16,131.));
#405=CARTESIAN_POINT('',(-99.,5.55111512312578E-16,161.49616852613));
#406=CARTESIAN_POINT('Ctrl Pts',(-99.,5.55111512312578E-16,161.49616852613));
#407=CARTESIAN_POINT('Ctrl Pts',(-99.,-1.88203561528676,161.49616852613));
#408=CARTESIAN_POINT('Ctrl Pts',(-99.,-3.93746168185847,161.310478787433));
#409=CARTESIAN_POINT('Ctrl Pts',(-99.,-7.96291024924636,160.509753193667));
#410=CARTESIAN_POINT('Ctrl Pts',(-99.,-9.93293276868099,159.894717432196));
#411=CARTESIAN_POINT('Ctrl Pts',(-99.,-13.410499037701,158.454238991951));
#412=CARTESIAN_POINT('Ctrl Pts',(-99.,-15.2384262199287,157.496080913454));
#413=CARTESIAN_POINT('Ctrl Pts',(-99.,-18.651070081298,155.215780654915));
#414=CARTESIAN_POINT('Ctrl Pts',(-99.,-20.2357869158645,153.893638707478));
#415=CARTESIAN_POINT('Ctrl Pts',(-99.,-22.8974337451909,151.231941871985));
#416=CARTESIAN_POINT('Ctrl Pts',(-99.,-24.2195734621181,149.647160118387));
#417=CARTESIAN_POINT('Ctrl Pts',(-99.,-26.4998611786043,146.234389758788));
#418=CARTESIAN_POINT('Ctrl Pts',(-99.,-27.4580095347525,144.406401391047));
#419=CARTESIAN_POINT('Ctrl Pts',(-99.,-28.8985096900361,140.928652305398));
#420=CARTESIAN_POINT('Ctrl Pts',(-99.,-29.5135633748381,138.958483070383));
#421=CARTESIAN_POINT('Ctrl Pts',(-99.,-30.3143083037322,134.932740938502));
#422=CARTESIAN_POINT('Ctrl Pts',(-99.,-30.5,132.877168131576));
#423=CARTESIAN_POINT('Ctrl Pts',(-99.,-30.5,129.112804052327));
#424=CARTESIAN_POINT('Ctrl Pts',(-99.,-30.3143028447824,127.057201704324));
#425=CARTESIAN_POINT('Ctrl Pts',(-99.,-29.513548185491,123.03139890154));
#426=CARTESIAN_POINT('Ctrl Pts',(-99.,-28.8984908865955,121.061198405947));
#427=CARTESIAN_POINT('Ctrl Pts',(-99.,-27.4579781298205,117.583349901484));
#428=CARTESIAN_POINT('Ctrl Pts',(-99.,-26.4998112357192,115.755285365261));
#429=CARTESIAN_POINT('Ctrl Pts',(-99.,-24.2194810676276,112.342359884119));
#430=CARTESIAN_POINT('Ctrl Pts',(-99.,-22.8973174020933,110.757499200809));
#431=CARTESIAN_POINT('Ctrl Pts',(-99.,-20.235639982304,108.095680626634));
#432=CARTESIAN_POINT('Ctrl Pts',(-99.,-18.6509168571526,106.773479262346));
#433=CARTESIAN_POINT('Ctrl Pts',(-99.,-15.2382493976034,104.493063236751));
#434=CARTESIAN_POINT('Ctrl Pts',(-99.,-13.4103044096795,103.534849553453));
#435=CARTESIAN_POINT('Ctrl Pts',(-99.,-9.9327527731152,102.094313031344));
#436=CARTESIAN_POINT('Ctrl Pts',(-99.,-7.96277072335713,101.479257604913));
#437=CARTESIAN_POINT('Ctrl Pts',(-99.,-3.93739726661919,100.678503424485));
#438=CARTESIAN_POINT('Ctrl Pts',(-99.,-1.88200571790103,100.492805383003));
#439=CARTESIAN_POINT('Ctrl Pts',(-99.,1.88200571790104,100.492805383003));
#440=CARTESIAN_POINT('Ctrl Pts',(-99.,3.9373972666192,100.678503424485));
#441=CARTESIAN_POINT('Ctrl Pts',(-99.,7.96277072335714,101.479257604913));
#442=CARTESIAN_POINT('Ctrl Pts',(-99.,9.93275277311521,102.094313031344));
#443=CARTESIAN_POINT('Ctrl Pts',(-99.,13.4103044096795,103.534849553453));
#444=CARTESIAN_POINT('Ctrl Pts',(-99.,15.2382493976034,104.493063236751));
#445=CARTESIAN_POINT('Ctrl Pts',(-99.,18.6509168571526,106.773479262346));
#446=CARTESIAN_POINT('Ctrl Pts',(-99.,20.235639982304,108.095680626634));
#447=CARTESIAN_POINT('Ctrl Pts',(-99.,22.8973174020933,110.757499200809));
#448=CARTESIAN_POINT('Ctrl Pts',(-99.,24.2194810676276,112.342359884119));
#449=CARTESIAN_POINT('Ctrl Pts',(-99.,26.4998112357192,115.755285365261));
#450=CARTESIAN_POINT('Ctrl Pts',(-99.,27.4579781298205,117.583349901484));
#451=CARTESIAN_POINT('Ctrl Pts',(-99.,28.8984908865955,121.061198405947));
#452=CARTESIAN_POINT('Ctrl Pts',(-99.,29.513548185491,123.03139890154));
#453=CARTESIAN_POINT('Ctrl Pts',(-99.,30.3143028447824,127.057201704324));
#454=CARTESIAN_POINT('Ctrl Pts',(-99.,30.5,129.112804052327));
#455=CARTESIAN_POINT('Ctrl Pts',(-99.,30.5,132.877168131576));
#456=CARTESIAN_POINT('Ctrl Pts',(-99.,30.3143083037322,134.932740938502));
#457=CARTESIAN_POINT('Ctrl Pts',(-99.,29.5135633748381,138.958483070383));
#458=CARTESIAN_POINT('Ctrl Pts',(-99.,28.8985096900361,140.928652305398));
#459=CARTESIAN_POINT('Ctrl Pts',(-99.,27.4580095347525,144.406401391047));
#460=CARTESIAN_POINT('Ctrl Pts',(-99.,26.4998611786043,146.234389758788));
#461=CARTESIAN_POINT('Ctrl Pts',(-99.,24.2195734621181,149.647160118387));
#462=CARTESIAN_POINT('Ctrl Pts',(-99.,22.8974337451909,151.231941871985));
#463=CARTESIAN_POINT('Ctrl Pts',(-99.,20.2357869158645,153.893638707478));
#464=CARTESIAN_POINT('Ctrl Pts',(-99.,18.651070081298,155.215780654915));
#465=CARTESIAN_POINT('Ctrl Pts',(-99.,15.2384262199287,157.496080913454));
#466=CARTESIAN_POINT('Ctrl Pts',(-99.,13.410499037701,158.454238991951));
#467=CARTESIAN_POINT('Ctrl Pts',(-99.,9.93293276868101,159.894717432196));
#468=CARTESIAN_POINT('Ctrl Pts',(-99.,7.96291024924637,160.509753193667));
#469=CARTESIAN_POINT('Ctrl Pts',(-99.,3.93746168185848,161.310478787433));
#470=CARTESIAN_POINT('Ctrl Pts',(-99.,1.88203561528676,161.49616852613));
#471=CARTESIAN_POINT('Ctrl Pts',(-99.,5.55111512312578E-16,161.49616852613));
#472=CARTESIAN_POINT('Origin',(-130.5,0.,131.));
#473=CARTESIAN_POINT('',(-130.5,3.06161699786838E-15,106.));
#474=CARTESIAN_POINT('Origin',(-130.5,0.,131.));
#475=CARTESIAN_POINT('',(-131.,-3.12284933782575E-15,105.5));
#476=CARTESIAN_POINT('Origin',(-131.,0.,131.));
#477=CARTESIAN_POINT('Origin',(-131.,0.,131.));
#478=CARTESIAN_POINT('',(-131.,3.7964050773568E-15,100.));
#479=CARTESIAN_POINT('Origin',(-131.,0.,131.));
#480=CARTESIAN_POINT('Origin',(-131.,0.,131.));
#481=CARTESIAN_POINT('',(-100.,3.06161699786838E-15,106.));
#482=CARTESIAN_POINT('Origin',(-100.,0.,131.));
#483=CARTESIAN_POINT('Origin',(0.,0.,0.5));
#484=CARTESIAN_POINT('',(-25.,-3.06161699786838E-15,0.5));
#485=CARTESIAN_POINT('Origin',(0.,0.,0.5));
#486=CARTESIAN_POINT('',(-25.5,3.12284933782575E-15,0.));
#487=CARTESIAN_POINT('Origin',(0.,0.,0.));
#488=CARTESIAN_POINT('Origin',(3.11264394783286E-16,0.,0.));
#489=CARTESIAN_POINT('',(-31.,-3.7964050773568E-15,0.));
#490=CARTESIAN_POINT('Origin',(0.,0.,0.));
#491=CARTESIAN_POINT('Origin',(0.,0.,0.));
#492=CARTESIAN_POINT('',(-25.,3.06161699786838E-15,31.));
#493=CARTESIAN_POINT('Origin',(0.,0.,31.));
#494=CARTESIAN_POINT('Origin',(0.,0.,0.5));
#495=CARTESIAN_POINT('Origin',(-130.5,0.,131.));
#496=CARTESIAN_POINT('Origin',(-100.,0.,31.));
#497=CARTESIAN_POINT('',(24.,2.93915231795365E-15,31.));
#498=CARTESIAN_POINT('Origin',(-1.77635683940025E-14,0.,31.));
#499=CARTESIAN_POINT('',(-100.,2.93915231795365E-15,155.));
#500=CARTESIAN_POINT('Origin',(-100.,0.,131.));
#501=CARTESIAN_POINT('Origin',(-100.,0.,131.));
#502=CARTESIAN_POINT('Origin',(1.43937264275587E-15,0.,31.));
#503=CARTESIAN_POINT('Origin',(-100.,0.,31.));
#504=UNCERTAINTY_MEASURE_WITH_UNIT(LENGTH_MEASURE(0.01),#508,
'DISTANCE_ACCURACY_VALUE',
'Maximum model space distance between geometric entities at asserted c
onnectivities');
#505=UNCERTAINTY_MEASURE_WITH_UNIT(LENGTH_MEASURE(1.E-6),#508,
'DISTANCE_ACCURACY_VALUE',
'Maximum model space distance between geometric entities at asserted c
onnectivities');
#506=(
GEOMETRIC_REPRESENTATION_CONTEXT(3)
GLOBAL_UNCERTAINTY_ASSIGNED_CONTEXT((#504))
GLOBAL_UNIT_ASSIGNED_CONTEXT((#508,#511,#509))
REPRESENTATION_CONTEXT('','3D')
);
#507=(
GEOMETRIC_REPRESENTATION_CONTEXT(3)
GLOBAL_UNCERTAINTY_ASSIGNED_CONTEXT((#505))
GLOBAL_UNIT_ASSIGNED_CONTEXT((#508,#511,#509))
REPRESENTATION_CONTEXT('','3D')
);
#508=(
LENGTH_UNIT()
NAMED_UNIT(*)
SI_UNIT(.MILLI.,.METRE.)
);
#509=(
NAMED_UNIT(*)
SI_UNIT($,.STERADIAN.)
SOLID_ANGLE_UNIT()
);
#510=DIMENSIONAL_EXPONENTS(0.,0.,0.,0.,0.,0.,0.);
#511=(
CONVERSION_BASED_UNIT('degree',#513)
NAMED_UNIT(#510)
PLANE_ANGLE_UNIT()
);
#512=(
NAMED_UNIT(*)
PLANE_ANGLE_UNIT()
SI_UNIT($,.RADIAN.)
);
#513=PLANE_ANGLE_MEASURE_WITH_UNIT(PLANE_ANGLE_MEASURE(0.01745329252),#512);
#514=SHAPE_DEFINITION_REPRESENTATION(#515,#516);
#515=PRODUCT_DEFINITION_SHAPE('',$,#518);
#516=SHAPE_REPRESENTATION('',(#214),#506);
#517=PRODUCT_DEFINITION_CONTEXT('part definition',#522,'design');
#518=PRODUCT_DEFINITION('BE300500','BE30',#519,#517);
#519=PRODUCT_DEFINITION_FORMATION('',$,#524);
#520=PRODUCT_RELATED_PRODUCT_CATEGORY('BE30','BE30',(#524));
#521=APPLICATION_PROTOCOL_DEFINITION('international standard',
'automotive_design',2009,#522);
#522=APPLICATION_CONTEXT(
'Core Data for Automotive Mechanical Design Process');
#523=PRODUCT_CONTEXT('part definition',#522,'mechanical');
#524=PRODUCT('BE300500','BE30',$,(#523));
#525=PRESENTATION_STYLE_ASSIGNMENT((#526));
#526=SURFACE_STYLE_USAGE(.BOTH.,#527);
#527=SURFACE_SIDE_STYLE('',(#528));
#528=SURFACE_STYLE_FILL_AREA(#529);
#529=FILL_AREA_STYLE('',(#530));
#530=FILL_AREA_STYLE_COLOUR('',#531);
#531=COLOUR_RGB('',0.8,0.8,0.8);
ENDSEC;
END-ISO-10303-21;
