ISO-10303-21;
HEADER;
/* Generated by software containing ST-Developer
 * from STEP Tools, Inc. (www.steptools.com) 
 */

FILE_DESCRIPTION(
/* description */ (''),
/* implementation_level */ '2;1');

FILE_NAME(
/* name */ 'C:\\Users\\Gabriele\\Desktop\\catalogo\\EL50\\EL500250.stp',

/* time_stamp */ '2016-10-17T17:03:43+02:00',
/* author */ ('Gabriele'),
/* organization */ (''),
/* preprocessor_version */ 'ST-DEVELOPER v16.5',
/* originating_system */ 'Autodesk Inventor 2017',
/* authorisation */ '');

FILE_SCHEMA (('AUTOMOTIVE_DESIGN { 1 0 10303 214 3 1 1 }'));
ENDSEC;

DATA;
#10=MECHANICAL_DESIGN_GEOMETRIC_PRESENTATION_REPRESENTATION('',(#13),#418);
#11=SHAPE_REPRESENTATION_RELATIONSHIP('SRR','None',#427,#12);
#12=ADVANCED_BREP_SHAPE_REPRESENTATION('',(#14),#417);
#13=STYLED_ITEM('',(#436),#14);
#14=MANIFOLD_SOLID_BREP('Solido1',#189);
#15=PLANE('',#200);
#16=PLANE('',#210);
#17=PLANE('',#218);
#18=PLANE('',#219);
#19=TOROIDAL_SURFACE('',#197,13.,0.5);
#20=TOROIDAL_SURFACE('',#204,15.75,0.5);
#21=TOROIDAL_SURFACE('',#207,13.,0.5);
#22=TOROIDAL_SURFACE('',#214,15.75,0.5);
#23=TOROIDAL_SURFACE('',#215,14.,12.);
#24=FACE_BOUND('',#74,.T.);
#25=FACE_BOUND('',#76,.T.);
#26=FACE_BOUND('',#78,.T.);
#27=FACE_BOUND('',#80,.T.);
#28=FACE_BOUND('',#82,.T.);
#29=FACE_BOUND('',#84,.T.);
#30=FACE_BOUND('',#86,.T.);
#31=FACE_BOUND('',#88,.T.);
#32=FACE_BOUND('',#90,.T.);
#33=FACE_BOUND('',#92,.T.);
#34=FACE_BOUND('',#94,.T.);
#35=FACE_BOUND('',#96,.T.);
#36=FACE_BOUND('',#98,.T.);
#37=CYLINDRICAL_SURFACE('',#195,16.25);
#38=CYLINDRICAL_SURFACE('',#202,12.5);
#39=CYLINDRICAL_SURFACE('',#206,16.25);
#40=CYLINDRICAL_SURFACE('',#212,12.5);
#41=CIRCLE('',#193,16.25);
#42=CIRCLE('',#194,16.25);
#43=CIRCLE('',#196,16.25);
#44=CIRCLE('',#198,12.5);
#45=CIRCLE('',#199,13.);
#46=CIRCLE('',#201,15.75);
#47=CIRCLE('',#203,12.5);
#48=CIRCLE('',#205,16.25);
#49=CIRCLE('',#208,12.5);
#50=CIRCLE('',#209,13.);
#51=CIRCLE('',#211,15.75);
#52=CIRCLE('',#213,12.5);
#53=CIRCLE('',#216,12.);
#54=CIRCLE('',#217,12.);
#55=(
BOUNDED_SURFACE()
B_SPLINE_SURFACE(2,2,((#349,#350,#351),(#352,#353,#354),(#355,#356,#357),
(#358,#359,#360),(#361,#362,#363),(#364,#365,#366),(#367,#368,#369),(#370,
#371,#372),(#373,#374,#375)),.UNSPECIFIED.,.F.,.F.,.F.)
B_SPLINE_SURFACE_WITH_KNOTS((3,2,2,2,3),(3,3),(-2.56310030626771,-1.28155015313369,
3.25517390820096E-13,1.28155015313434,2.56310030626836),(-1.06264203785551E-14,
1.57079632679494),.UNSPECIFIED.)
GEOMETRIC_REPRESENTATION_ITEM()
RATIONAL_B_SPLINE_SURFACE(((1.,0.707106781186528,1.),(0.801632644811145,
0.566839879166452,0.801632644811145),(1.,0.707106781186528,1.),(0.801632644811145,
0.566839879166452,0.801632644811145),(1.,0.707106781186528,1.),(0.801632644811144,
0.566839879166452,0.801632644811144),(1.,0.707106781186528,1.),(0.801632644811144,
0.566839879166452,0.801632644811144),(1.,0.707106781186528,1.)))
REPRESENTATION_ITEM('')
SURFACE()
);
#56=FACE_OUTER_BOUND('',#71,.T.);
#57=FACE_OUTER_BOUND('',#72,.T.);
#58=FACE_OUTER_BOUND('',#73,.T.);
#59=FACE_OUTER_BOUND('',#75,.T.);
#60=FACE_OUTER_BOUND('',#77,.T.);
#61=FACE_OUTER_BOUND('',#79,.T.);
#62=FACE_OUTER_BOUND('',#81,.T.);
#63=FACE_OUTER_BOUND('',#83,.T.);
#64=FACE_OUTER_BOUND('',#85,.T.);
#65=FACE_OUTER_BOUND('',#87,.T.);
#66=FACE_OUTER_BOUND('',#89,.T.);
#67=FACE_OUTER_BOUND('',#91,.T.);
#68=FACE_OUTER_BOUND('',#93,.T.);
#69=FACE_OUTER_BOUND('',#95,.T.);
#70=FACE_OUTER_BOUND('',#97,.T.);
#71=EDGE_LOOP('',(#137,#138,#139,#140));
#72=EDGE_LOOP('',(#141,#142,#143,#144));
#73=EDGE_LOOP('',(#145));
#74=EDGE_LOOP('',(#146,#147));
#75=EDGE_LOOP('',(#148));
#76=EDGE_LOOP('',(#149));
#77=EDGE_LOOP('',(#150));
#78=EDGE_LOOP('',(#151));
#79=EDGE_LOOP('',(#152));
#80=EDGE_LOOP('',(#153));
#81=EDGE_LOOP('',(#154));
#82=EDGE_LOOP('',(#155));
#83=EDGE_LOOP('',(#156,#157));
#84=EDGE_LOOP('',(#158));
#85=EDGE_LOOP('',(#159));
#86=EDGE_LOOP('',(#160));
#87=EDGE_LOOP('',(#161));
#88=EDGE_LOOP('',(#162));
#89=EDGE_LOOP('',(#163));
#90=EDGE_LOOP('',(#164));
#91=EDGE_LOOP('',(#165));
#92=EDGE_LOOP('',(#166));
#93=EDGE_LOOP('',(#167));
#94=EDGE_LOOP('',(#168));
#95=EDGE_LOOP('',(#169));
#96=EDGE_LOOP('',(#170));
#97=EDGE_LOOP('',(#171));
#98=EDGE_LOOP('',(#172));
#99=ELLIPSE('',#191,23.3372020602299,16.25);
#100=ELLIPSE('',#192,23.3372020602299,16.25);
#101=B_SPLINE_CURVE_WITH_KNOTS('',3,(#313,#314,#315,#316,#317,#318,#319,
#320,#321,#322,#323,#324,#325,#326,#327,#328),.UNSPECIFIED.,.F.,.F.,(4,
3,3,3,3,4),(-0.000303945261481024,0.0131264806966828,0.0260285712883395,
0.0317605478575234,0.0441922172200644,0.0638924495053215),.UNSPECIFIED.);
#102=B_SPLINE_CURVE_WITH_KNOTS('',3,(#332,#333,#334,#335,#336,#337,#338,
#339,#340,#341,#342,#343,#344,#345,#346,#347),.UNSPECIFIED.,.F.,.F.,(4,
3,3,3,3,4),(-0.000303945275015954,0.0131264806477829,0.0260285712318876,
0.0317605484621138,0.044192217512255,0.0638924507149415),.UNSPECIFIED.);
#103=VERTEX_POINT('',#311);
#104=VERTEX_POINT('',#312);
#105=VERTEX_POINT('',#329);
#106=VERTEX_POINT('',#331);
#107=VERTEX_POINT('',#379);
#108=VERTEX_POINT('',#382);
#109=VERTEX_POINT('',#384);
#110=VERTEX_POINT('',#387);
#111=VERTEX_POINT('',#390);
#112=VERTEX_POINT('',#393);
#113=VERTEX_POINT('',#397);
#114=VERTEX_POINT('',#399);
#115=VERTEX_POINT('',#402);
#116=VERTEX_POINT('',#405);
#117=VERTEX_POINT('',#409);
#118=VERTEX_POINT('',#411);
#119=EDGE_CURVE('',#103,#104,#101,.T.);
#120=EDGE_CURVE('',#103,#105,#99,.T.);
#121=EDGE_CURVE('',#106,#105,#102,.T.);
#122=EDGE_CURVE('',#106,#104,#100,.T.);
#123=EDGE_CURVE('',#105,#103,#41,.T.);
#124=EDGE_CURVE('',#106,#104,#42,.T.);
#125=EDGE_CURVE('',#107,#107,#43,.T.);
#126=EDGE_CURVE('',#108,#108,#44,.T.);
#127=EDGE_CURVE('',#109,#109,#45,.T.);
#128=EDGE_CURVE('',#110,#110,#46,.T.);
#129=EDGE_CURVE('',#111,#111,#47,.T.);
#130=EDGE_CURVE('',#112,#112,#48,.T.);
#131=EDGE_CURVE('',#113,#113,#49,.T.);
#132=EDGE_CURVE('',#114,#114,#50,.T.);
#133=EDGE_CURVE('',#115,#115,#51,.T.);
#134=EDGE_CURVE('',#116,#116,#52,.T.);
#135=EDGE_CURVE('',#117,#117,#53,.T.);
#136=EDGE_CURVE('',#118,#118,#54,.T.);
#137=ORIENTED_EDGE('',*,*,#119,.F.);
#138=ORIENTED_EDGE('',*,*,#120,.T.);
#139=ORIENTED_EDGE('',*,*,#121,.F.);
#140=ORIENTED_EDGE('',*,*,#122,.T.);
#141=ORIENTED_EDGE('',*,*,#121,.T.);
#142=ORIENTED_EDGE('',*,*,#123,.T.);
#143=ORIENTED_EDGE('',*,*,#119,.T.);
#144=ORIENTED_EDGE('',*,*,#124,.F.);
#145=ORIENTED_EDGE('',*,*,#125,.F.);
#146=ORIENTED_EDGE('',*,*,#120,.F.);
#147=ORIENTED_EDGE('',*,*,#123,.F.);
#148=ORIENTED_EDGE('',*,*,#126,.T.);
#149=ORIENTED_EDGE('',*,*,#127,.T.);
#150=ORIENTED_EDGE('',*,*,#128,.F.);
#151=ORIENTED_EDGE('',*,*,#127,.F.);
#152=ORIENTED_EDGE('',*,*,#129,.F.);
#153=ORIENTED_EDGE('',*,*,#126,.F.);
#154=ORIENTED_EDGE('',*,*,#130,.T.);
#155=ORIENTED_EDGE('',*,*,#128,.T.);
#156=ORIENTED_EDGE('',*,*,#122,.F.);
#157=ORIENTED_EDGE('',*,*,#124,.T.);
#158=ORIENTED_EDGE('',*,*,#130,.F.);
#159=ORIENTED_EDGE('',*,*,#131,.T.);
#160=ORIENTED_EDGE('',*,*,#132,.T.);
#161=ORIENTED_EDGE('',*,*,#133,.F.);
#162=ORIENTED_EDGE('',*,*,#132,.F.);
#163=ORIENTED_EDGE('',*,*,#134,.T.);
#164=ORIENTED_EDGE('',*,*,#131,.F.);
#165=ORIENTED_EDGE('',*,*,#133,.T.);
#166=ORIENTED_EDGE('',*,*,#125,.T.);
#167=ORIENTED_EDGE('',*,*,#135,.F.);
#168=ORIENTED_EDGE('',*,*,#136,.F.);
#169=ORIENTED_EDGE('',*,*,#129,.T.);
#170=ORIENTED_EDGE('',*,*,#135,.T.);
#171=ORIENTED_EDGE('',*,*,#134,.F.);
#172=ORIENTED_EDGE('',*,*,#136,.T.);
#173=B_SPLINE_SURFACE_WITH_KNOTS('',3,3,((#281,#282,#283,#284,#285,#286),
(#287,#288,#289,#290,#291,#292),(#293,#294,#295,#296,#297,#298),(#299,#300,
#301,#302,#303,#304),(#305,#306,#307,#308,#309,#310)),.UNSPECIFIED.,.F.,
 .F.,.F.,(4,1,4),(4,1,1,4),(0.,0.5,1.),(-0.583514653663052,-0.0833592362378219,
0.250077708712331,0.583514653662484),.UNSPECIFIED.);
#174=ADVANCED_FACE('',(#56),#173,.T.);
#175=ADVANCED_FACE('',(#57),#55,.F.);
#176=ADVANCED_FACE('',(#58,#24),#37,.T.);
#177=ADVANCED_FACE('',(#59,#25),#19,.T.);
#178=ADVANCED_FACE('',(#60,#26),#15,.T.);
#179=ADVANCED_FACE('',(#61,#27),#38,.F.);
#180=ADVANCED_FACE('',(#62,#28),#20,.T.);
#181=ADVANCED_FACE('',(#63,#29),#39,.T.);
#182=ADVANCED_FACE('',(#64,#30),#21,.T.);
#183=ADVANCED_FACE('',(#65,#31),#16,.F.);
#184=ADVANCED_FACE('',(#66,#32),#40,.F.);
#185=ADVANCED_FACE('',(#67,#33),#22,.T.);
#186=ADVANCED_FACE('',(#68,#34),#23,.F.);
#187=ADVANCED_FACE('',(#69,#35),#17,.T.);
#188=ADVANCED_FACE('',(#70,#36),#18,.F.);
#189=CLOSED_SHELL('',(#174,#175,#176,#177,#178,#179,#180,#181,#182,#183,
#184,#185,#186,#187,#188));
#190=AXIS2_PLACEMENT_3D('placement',#280,#220,#221);
#191=AXIS2_PLACEMENT_3D('',#330,#222,#223);
#192=AXIS2_PLACEMENT_3D('',#348,#224,#225);
#193=AXIS2_PLACEMENT_3D('',#376,#226,#227);
#194=AXIS2_PLACEMENT_3D('',#377,#228,#229);
#195=AXIS2_PLACEMENT_3D('',#378,#230,#231);
#196=AXIS2_PLACEMENT_3D('',#380,#232,#233);
#197=AXIS2_PLACEMENT_3D('',#381,#234,#235);
#198=AXIS2_PLACEMENT_3D('',#383,#236,#237);
#199=AXIS2_PLACEMENT_3D('',#385,#238,#239);
#200=AXIS2_PLACEMENT_3D('',#386,#240,#241);
#201=AXIS2_PLACEMENT_3D('',#388,#242,#243);
#202=AXIS2_PLACEMENT_3D('',#389,#244,#245);
#203=AXIS2_PLACEMENT_3D('',#391,#246,#247);
#204=AXIS2_PLACEMENT_3D('',#392,#248,#249);
#205=AXIS2_PLACEMENT_3D('',#394,#250,#251);
#206=AXIS2_PLACEMENT_3D('',#395,#252,#253);
#207=AXIS2_PLACEMENT_3D('',#396,#254,#255);
#208=AXIS2_PLACEMENT_3D('',#398,#256,#257);
#209=AXIS2_PLACEMENT_3D('',#400,#258,#259);
#210=AXIS2_PLACEMENT_3D('',#401,#260,#261);
#211=AXIS2_PLACEMENT_3D('',#403,#262,#263);
#212=AXIS2_PLACEMENT_3D('',#404,#264,#265);
#213=AXIS2_PLACEMENT_3D('',#406,#266,#267);
#214=AXIS2_PLACEMENT_3D('',#407,#268,#269);
#215=AXIS2_PLACEMENT_3D('',#408,#270,#271);
#216=AXIS2_PLACEMENT_3D('',#410,#272,#273);
#217=AXIS2_PLACEMENT_3D('',#412,#274,#275);
#218=AXIS2_PLACEMENT_3D('',#413,#276,#277);
#219=AXIS2_PLACEMENT_3D('',#414,#278,#279);
#220=DIRECTION('axis',(0.,0.,1.));
#221=DIRECTION('refdir',(1.,0.,0.));
#222=DIRECTION('center_axis',(0.717738140020842,0.696313120915743,0.));
#223=DIRECTION('ref_axis',(0.696313120915743,-0.717738140020842,0.));
#224=DIRECTION('center_axis',(-0.696313120915743,-0.717738140020842,-1.48574447730575E-16));
#225=DIRECTION('ref_axis',(0.717738140020842,-0.696313120915743,0.));
#226=DIRECTION('center_axis',(0.,1.,0.));
#227=DIRECTION('ref_axis',(-1.,0.,0.));
#228=DIRECTION('center_axis',(1.,6.12323399573677E-17,0.));
#229=DIRECTION('ref_axis',(-6.12323399573677E-17,1.,0.));
#230=DIRECTION('center_axis',(0.,1.,0.));
#231=DIRECTION('ref_axis',(-1.,0.,0.));
#232=DIRECTION('center_axis',(0.,-1.,0.));
#233=DIRECTION('ref_axis',(-1.,0.,0.));
#234=DIRECTION('center_axis',(-1.,-6.12323399573677E-17,0.));
#235=DIRECTION('ref_axis',(0.,0.,1.));
#236=DIRECTION('center_axis',(-1.,-6.12323399573677E-17,0.));
#237=DIRECTION('ref_axis',(-6.10622663543836E-17,1.,0.));
#238=DIRECTION('center_axis',(1.,6.12323399573677E-17,0.));
#239=DIRECTION('ref_axis',(-6.12323399573677E-17,1.,0.));
#240=DIRECTION('center_axis',(1.,6.12323399573677E-17,0.));
#241=DIRECTION('ref_axis',(0.,0.,1.));
#242=DIRECTION('center_axis',(-1.,-6.12323399573677E-17,0.));
#243=DIRECTION('ref_axis',(-6.12323399573677E-17,1.,0.));
#244=DIRECTION('center_axis',(1.,2.22044604925031E-16,0.));
#245=DIRECTION('ref_axis',(-2.22044604925031E-16,1.,0.));
#246=DIRECTION('center_axis',(1.,2.22044604925031E-16,0.));
#247=DIRECTION('ref_axis',(-2.22044604925031E-16,1.,0.));
#248=DIRECTION('center_axis',(1.,6.12323399573677E-17,0.));
#249=DIRECTION('ref_axis',(0.,0.,-1.));
#250=DIRECTION('center_axis',(1.,6.12323399573677E-17,0.));
#251=DIRECTION('ref_axis',(-5.97812397875084E-17,1.,0.));
#252=DIRECTION('center_axis',(1.,0.,0.));
#253=DIRECTION('ref_axis',(0.,1.,0.));
#254=DIRECTION('center_axis',(0.,1.,0.));
#255=DIRECTION('ref_axis',(0.,0.,1.));
#256=DIRECTION('center_axis',(0.,1.,0.));
#257=DIRECTION('ref_axis',(-1.,0.,0.));
#258=DIRECTION('center_axis',(0.,-1.,0.));
#259=DIRECTION('ref_axis',(-1.,0.,0.));
#260=DIRECTION('center_axis',(0.,1.,0.));
#261=DIRECTION('ref_axis',(0.,0.,1.));
#262=DIRECTION('center_axis',(0.,1.,0.));
#263=DIRECTION('ref_axis',(-1.,0.,0.));
#264=DIRECTION('center_axis',(0.,1.,0.));
#265=DIRECTION('ref_axis',(-1.,0.,0.));
#266=DIRECTION('center_axis',(0.,1.,0.));
#267=DIRECTION('ref_axis',(-1.,0.,0.));
#268=DIRECTION('center_axis',(0.,1.,0.));
#269=DIRECTION('ref_axis',(0.,0.,1.));
#270=DIRECTION('center_axis',(0.,0.,-1.));
#271=DIRECTION('ref_axis',(-1.,0.,0.));
#272=DIRECTION('center_axis',(-1.,-2.22044604925031E-16,0.));
#273=DIRECTION('ref_axis',(-2.22044604925031E-16,1.,0.));
#274=DIRECTION('center_axis',(0.,1.,0.));
#275=DIRECTION('ref_axis',(-1.,0.,0.));
#276=DIRECTION('center_axis',(1.,2.22044604925031E-16,0.));
#277=DIRECTION('ref_axis',(0.,0.,1.));
#278=DIRECTION('center_axis',(0.,1.,0.));
#279=DIRECTION('ref_axis',(0.,0.,1.));
#280=CARTESIAN_POINT('',(0.,0.,0.));
#281=CARTESIAN_POINT('Ctrl Pts',(13.5611348149097,19.0215994984777,-8.95310686476171));
#282=CARTESIAN_POINT('Ctrl Pts',(15.0537831153089,17.4830235580662,-6.69221518339138));
#283=CARTESIAN_POINT('Ctrl Pts',(16.5753261803636,15.9146637833175,-2.29192350513818));
#284=CARTESIAN_POINT('Ctrl Pts',(16.0372442840869,16.4693020456335,4.09743796242907));
#285=CARTESIAN_POINT('Ctrl Pts',(14.5562336818468,17.9958822048657,7.44584574383989));
#286=CARTESIAN_POINT('Ctrl Pts',(13.5611348149148,19.0215994984724,8.95310686475401));
#287=CARTESIAN_POINT('Ctrl Pts',(13.5891041373406,19.1137379988707,-8.91074215741527));
#288=CARTESIAN_POINT('Ctrl Pts',(15.0726141640384,17.5923728929855,-6.64791360537142));
#289=CARTESIAN_POINT('Ctrl Pts',(16.569158045869,16.0519694573287,-2.26961563786225));
#290=CARTESIAN_POINT('Ctrl Pts',(16.0413304892779,16.5957595380674,4.06121402334931));
#291=CARTESIAN_POINT('Ctrl Pts',(14.57811082181,18.0994945949429,7.40218978937779));
#292=CARTESIAN_POINT('Ctrl Pts',(13.5891041373457,19.1137379988655,8.91074215740757));
#293=CARTESIAN_POINT('Ctrl Pts',(13.7022881106112,19.2977118893888,-8.86400641570084));
#294=CARTESIAN_POINT('Ctrl Pts',(15.1896970689137,17.8103029310863,-6.59811004766098));
#295=CARTESIAN_POINT('Ctrl Pts',(16.6751312735187,16.3248687264813,-2.24377360535439));
#296=CARTESIAN_POINT('Ctrl Pts',(16.1525758291151,16.8474241708849,4.01937619767568));
#297=CARTESIAN_POINT('Ctrl Pts',(14.693894082817,18.306105917183,7.35340883699936));
#298=CARTESIAN_POINT('Ctrl Pts',(13.7022881106163,19.2977118893837,8.86400641569313));
#299=CARTESIAN_POINT('Ctrl Pts',(13.8862620011293,19.4108958626594,-8.91074215741527));
#300=CARTESIAN_POINT('Ctrl Pts',(15.4076271070145,17.9273858359616,-6.64791360537142));
#301=CARTESIAN_POINT('Ctrl Pts',(16.9480305426713,16.4308419541311,-2.26961563786225));
#302=CARTESIAN_POINT('Ctrl Pts',(16.4042404619326,16.9586695107221,4.06121402334931));
#303=CARTESIAN_POINT('Ctrl Pts',(14.9005054050571,18.42188917819,7.40218978937779));
#304=CARTESIAN_POINT('Ctrl Pts',(13.8862620011345,19.4108958626543,8.91074215740757));
#305=CARTESIAN_POINT('Ctrl Pts',(13.9784005015223,19.4388651850903,-8.95310686476171));
#306=CARTESIAN_POINT('Ctrl Pts',(15.5169764419338,17.9462168846911,-6.69221518339137));
#307=CARTESIAN_POINT('Ctrl Pts',(17.0853362166825,16.4246738196364,-2.29192350513818));
#308=CARTESIAN_POINT('Ctrl Pts',(16.5306979543665,16.9627557159131,4.09743796242907));
#309=CARTESIAN_POINT('Ctrl Pts',(15.0041177951343,18.4437663181533,7.44584574383989));
#310=CARTESIAN_POINT('Ctrl Pts',(13.9784005015276,19.4388651850852,8.95310686475401));
#311=CARTESIAN_POINT('',(13.5820895522388,19.,8.92128597204266));
#312=CARTESIAN_POINT('',(14.,19.4179104477612,8.92128597204268));
#313=CARTESIAN_POINT('Ctrl Pts',(13.5820890676643,19.0000004994845,8.92128582015446));
#314=CARTESIAN_POINT('Ctrl Pts',(13.5881825284601,19.0433704401074,8.91200691152515));
#315=CARTESIAN_POINT('Ctrl Pts',(13.6001148355473,19.0860243059127,8.90440655343085));
#316=CARTESIAN_POINT('Ctrl Pts',(13.617674629322,19.1267919769668,8.89862994950749));
#317=CARTESIAN_POINT('Ctrl Pts',(13.6345436438089,19.1659559012378,8.8930805896165));
#318=CARTESIAN_POINT('Ctrl Pts',(13.6564053174144,19.2029139478741,8.88927874600213));
#319=CARTESIAN_POINT('Ctrl Pts',(13.6829364170319,19.2366374690573,8.88744710953035));
#320=CARTESIAN_POINT('Ctrl Pts',(13.6947233162388,19.2516197257606,8.88663337339472));
#321=CARTESIAN_POINT('Ctrl Pts',(13.7073459647452,19.2658476365399,8.88621759108895));
#322=CARTESIAN_POINT('Ctrl Pts',(13.7207492886029,19.2792507113971,8.88621740247273));
#323=CARTESIAN_POINT('Ctrl Pts',(13.7498187881984,19.308319670953,8.88621699339667));
#324=CARTESIAN_POINT('Ctrl Pts',(13.7825515584232,19.3335225962646,8.88815832389982));
#325=CARTESIAN_POINT('Ctrl Pts',(13.8181243107662,19.3544223808073,8.89184100765753));
#326=CARTESIAN_POINT('Ctrl Pts',(13.8744957813826,19.3875418757194,8.89767688724411));
#327=CARTESIAN_POINT('Ctrl Pts',(13.9363436795595,19.4089673128149,8.90766678966749));
#328=CARTESIAN_POINT('Ctrl Pts',(13.9999995004792,19.4179109323709,8.92128582020811));
#329=CARTESIAN_POINT('',(13.5820895522388,19.,-8.92128597204266));
#330=CARTESIAN_POINT('Origin',(0.,33.,0.));
#331=CARTESIAN_POINT('',(14.,19.4179104477612,-8.92128597204269));
#332=CARTESIAN_POINT('Ctrl Pts',(13.9999990351037,19.4179113838546,-8.92128557999006));
#333=CARTESIAN_POINT('Ctrl Pts',(13.9566293394557,19.4118176819205,-8.91200689729341));
#334=CARTESIAN_POINT('Ctrl Pts',(13.9139755801656,19.3998852761647,-8.90440655010663));
#335=CARTESIAN_POINT('Ctrl Pts',(13.8732079637323,19.3823254313668,-8.89862995322851));
#336=CARTESIAN_POINT('Ctrl Pts',(13.8340440918534,19.3654563678293,-8.89308060009425));
#337=CARTESIAN_POINT('Ctrl Pts',(13.797086051097,19.3435946897697,-8.88927874812774));
#338=CARTESIAN_POINT('Ctrl Pts',(13.7633625331884,19.3170635882807,-8.88744711053612));
#339=CARTESIAN_POINT('Ctrl Pts',(13.7483802762034,19.3052766868761,-8.88663337380867));
#340=CARTESIAN_POINT('Ctrl Pts',(13.734152364178,19.2926540370737,-8.88621759132547));
#341=CARTESIAN_POINT('Ctrl Pts',(13.7207492880523,19.2792507119477,-8.88621740270933));
#342=CARTESIAN_POINT('Ctrl Pts',(13.6916803298278,19.2501812136846,-8.88621699363349));
#343=CARTESIAN_POINT('Ctrl Pts',(13.6664774071833,19.2174484432508,-8.88815832508026));
#344=CARTESIAN_POINT('Ctrl Pts',(13.6455776072609,19.1818757092301,-8.89184101096101));
#345=CARTESIAN_POINT('Ctrl Pts',(13.6124580856023,19.1255042636071,-8.89767689433037));
#346=CARTESIAN_POINT('Ctrl Pts',(13.5910325900349,19.0636564294245,-8.90766688044352));
#347=CARTESIAN_POINT('Ctrl Pts',(13.5820886161102,19.0000009649326,-8.9212855800437));
#348=CARTESIAN_POINT('Origin',(-1.11022302462516E-15,33.,0.));
#349=CARTESIAN_POINT('Ctrl Pts',(13.6059288415616,19.,8.88488606333033));
#350=CARTESIAN_POINT('Ctrl Pts',(13.6059288415616,19.3940711584384,8.88488606333033));
#351=CARTESIAN_POINT('Ctrl Pts',(14.,19.3940711584384,8.88488606333033));
#352=CARTESIAN_POINT('Ctrl Pts',(6.98003168024463,19.,19.031497358714));
#353=CARTESIAN_POINT('Ctrl Pts',(6.98003168024444,26.0199683197556,19.031497358714));
#354=CARTESIAN_POINT('Ctrl Pts',(14.,26.0199683197554,19.031497358714));
#355=CARTESIAN_POINT('Ctrl Pts',(-4.63498415987966,19.,15.574961375158));
#356=CARTESIAN_POINT('Ctrl Pts',(-4.63498415988016,37.6349841598802,15.574961375158));
#357=CARTESIAN_POINT('Ctrl Pts',(14.,37.6349841598797,15.574961375158));
#358=CARTESIAN_POINT('Ctrl Pts',(-16.2500000000039,19.,12.1184253916021));
#359=CARTESIAN_POINT('Ctrl Pts',(-16.2500000000048,49.2500000000048,12.1184253916021));
#360=CARTESIAN_POINT('Ctrl Pts',(14.,49.250000000004,12.1184253916021));
#361=CARTESIAN_POINT('Ctrl Pts',(-16.25,19.,-5.28965760082656E-12));
#362=CARTESIAN_POINT('Ctrl Pts',(-16.2500000000008,49.2500000000008,-5.28965760082656E-12));
#363=CARTESIAN_POINT('Ctrl Pts',(14.,49.25,-5.28965760082656E-12));
#364=CARTESIAN_POINT('Ctrl Pts',(-16.2499999999961,19.,-12.1184253916127));
#365=CARTESIAN_POINT('Ctrl Pts',(-16.2499999999969,49.2499999999969,-12.1184253916127));
#366=CARTESIAN_POINT('Ctrl Pts',(14.,49.2499999999961,-12.1184253916127));
#367=CARTESIAN_POINT('Ctrl Pts',(-4.63498415986952,19.,-15.5749613751611));
#368=CARTESIAN_POINT('Ctrl Pts',(-4.63498415987002,37.63498415987,-15.5749613751611));
#369=CARTESIAN_POINT('Ctrl Pts',(14.,37.6349841598695,-15.5749613751611));
#370=CARTESIAN_POINT('Ctrl Pts',(6.98003168025702,19.,-19.0314973587094));
#371=CARTESIAN_POINT('Ctrl Pts',(6.98003168025684,26.0199683197432,-19.0314973587094));
#372=CARTESIAN_POINT('Ctrl Pts',(14.,26.019968319743,-19.0314973587094));
#373=CARTESIAN_POINT('Ctrl Pts',(13.6059288415674,19.,-8.88488606332148));
#374=CARTESIAN_POINT('Ctrl Pts',(13.6059288415674,19.3940711584326,-8.88488606332148));
#375=CARTESIAN_POINT('Ctrl Pts',(14.,19.3940711584326,-8.88488606332148));
#376=CARTESIAN_POINT('Origin',(0.,19.,0.));
#377=CARTESIAN_POINT('Origin',(14.,33.,0.));
#378=CARTESIAN_POINT('Origin',(0.,0.,0.));
#379=CARTESIAN_POINT('',(16.25,0.5,1.99005104861445E-15));
#380=CARTESIAN_POINT('Origin',(0.,0.5,0.));
#381=CARTESIAN_POINT('Origin',(32.5,33.,0.));
#382=CARTESIAN_POINT('',(32.5,20.5,1.53080849893419E-15));
#383=CARTESIAN_POINT('Origin',(32.5,33.,0.));
#384=CARTESIAN_POINT('',(33.,20.,-1.59204083889156E-15));
#385=CARTESIAN_POINT('Origin',(33.,33.,0.));
#386=CARTESIAN_POINT('Origin',(33.,33.,0.));
#387=CARTESIAN_POINT('',(33.,17.25,1.92881870865708E-15));
#388=CARTESIAN_POINT('Origin',(33.,33.,0.));
#389=CARTESIAN_POINT('Origin',(33.,33.,0.));
#390=CARTESIAN_POINT('',(14.,20.5,1.53080849893419E-15));
#391=CARTESIAN_POINT('Origin',(14.,33.,0.));
#392=CARTESIAN_POINT('Origin',(32.5,33.,0.));
#393=CARTESIAN_POINT('',(32.5,16.75,-1.99005104861445E-15));
#394=CARTESIAN_POINT('Origin',(32.5,33.,0.));
#395=CARTESIAN_POINT('Origin',(14.,33.,0.));
#396=CARTESIAN_POINT('Origin',(0.,0.5,0.));
#397=CARTESIAN_POINT('',(12.5,0.5,-1.53080849893419E-15));
#398=CARTESIAN_POINT('Origin',(0.,0.5,0.));
#399=CARTESIAN_POINT('',(13.,0.,1.59204083889156E-15));
#400=CARTESIAN_POINT('Origin',(0.,0.,0.));
#401=CARTESIAN_POINT('Origin',(-1.076789812718E-15,0.,0.));
#402=CARTESIAN_POINT('',(15.75,0.,-1.92881870865708E-15));
#403=CARTESIAN_POINT('Origin',(0.,0.,0.));
#404=CARTESIAN_POINT('Origin',(0.,0.,0.));
#405=CARTESIAN_POINT('',(12.5,19.,1.53080849893419E-15));
#406=CARTESIAN_POINT('Origin',(0.,19.,0.));
#407=CARTESIAN_POINT('Origin',(0.,0.5,0.));
#408=CARTESIAN_POINT('Origin',(14.,19.,0.));
#409=CARTESIAN_POINT('',(14.,45.,-2.66453525910038E-15));
#410=CARTESIAN_POINT('Origin',(14.,33.,0.));
#411=CARTESIAN_POINT('',(-12.,19.,-2.66453525910038E-15));
#412=CARTESIAN_POINT('Origin',(0.,19.,0.));
#413=CARTESIAN_POINT('Origin',(14.,33.,0.));
#414=CARTESIAN_POINT('Origin',(-7.19686321377933E-16,19.,0.));
#415=UNCERTAINTY_MEASURE_WITH_UNIT(LENGTH_MEASURE(0.01),#419,
'DISTANCE_ACCURACY_VALUE',
'Maximum model space distance between geometric entities at asserted c
onnectivities');
#416=UNCERTAINTY_MEASURE_WITH_UNIT(LENGTH_MEASURE(1.E-6),#419,
'DISTANCE_ACCURACY_VALUE',
'Maximum model space distance between geometric entities at asserted c
onnectivities');
#417=(
GEOMETRIC_REPRESENTATION_CONTEXT(3)
GLOBAL_UNCERTAINTY_ASSIGNED_CONTEXT((#415))
GLOBAL_UNIT_ASSIGNED_CONTEXT((#419,#422,#420))
REPRESENTATION_CONTEXT('','3D')
);
#418=(
GEOMETRIC_REPRESENTATION_CONTEXT(3)
GLOBAL_UNCERTAINTY_ASSIGNED_CONTEXT((#416))
GLOBAL_UNIT_ASSIGNED_CONTEXT((#419,#422,#420))
REPRESENTATION_CONTEXT('','3D')
);
#419=(
LENGTH_UNIT()
NAMED_UNIT(*)
SI_UNIT(.MILLI.,.METRE.)
);
#420=(
NAMED_UNIT(*)
SI_UNIT($,.STERADIAN.)
SOLID_ANGLE_UNIT()
);
#421=DIMENSIONAL_EXPONENTS(0.,0.,0.,0.,0.,0.,0.);
#422=(
CONVERSION_BASED_UNIT('degree',#424)
NAMED_UNIT(#421)
PLANE_ANGLE_UNIT()
);
#423=(
NAMED_UNIT(*)
PLANE_ANGLE_UNIT()
SI_UNIT($,.RADIAN.)
);
#424=PLANE_ANGLE_MEASURE_WITH_UNIT(PLANE_ANGLE_MEASURE(0.01745329252),#423);
#425=SHAPE_DEFINITION_REPRESENTATION(#426,#427);
#426=PRODUCT_DEFINITION_SHAPE('',$,#429);
#427=SHAPE_REPRESENTATION('',(#190),#417);
#428=PRODUCT_DEFINITION_CONTEXT('part definition',#433,'design');
#429=PRODUCT_DEFINITION('EL500250','EL500250',#430,#428);
#430=PRODUCT_DEFINITION_FORMATION('',$,#435);
#431=PRODUCT_RELATED_PRODUCT_CATEGORY('EL500250','EL500250',(#435));
#432=APPLICATION_PROTOCOL_DEFINITION('international standard',
'automotive_design',2009,#433);
#433=APPLICATION_CONTEXT(
'Core Data for Automotive Mechanical Design Process');
#434=PRODUCT_CONTEXT('part definition',#433,'mechanical');
#435=PRODUCT('EL500250','EL500250',$,(#434));
#436=PRESENTATION_STYLE_ASSIGNMENT((#437));
#437=SURFACE_STYLE_USAGE(.BOTH.,#438);
#438=SURFACE_SIDE_STYLE('',(#439));
#439=SURFACE_STYLE_FILL_AREA(#440);
#440=FILL_AREA_STYLE('',(#441));
#441=FILL_AREA_STYLE_COLOUR('',#442);
#442=COLOUR_RGB('',0.8,0.8,0.8);
ENDSEC;
END-ISO-10303-21;
