ISO-10303-21;
HEADER;
/* Generated by software containing ST-Developer
 * from STEP Tools, Inc. (www.steptools.com) 
 */

FILE_DESCRIPTION(
/* description */ (''),
/* implementation_level */ '2;1');

FILE_NAME(
/* name */ 'C:\\Users\\Gabriele\\Desktop\\catalogo\\EL50\\EL500500.stp',

/* time_stamp */ '2016-11-09T12:18:56+01:00',
/* author */ ('Gabriele'),
/* organization */ (''),
/* preprocessor_version */ 'ST-DEVELOPER v16.5',
/* originating_system */ 'Autodesk Inventor 2017',
/* authorisation */ '');

FILE_SCHEMA (('AUTOMOTIVE_DESIGN { 1 0 10303 214 3 1 1 }'));
ENDSEC;

DATA;
#10=MECHANICAL_DESIGN_GEOMETRIC_PRESENTATION_REPRESENTATION('',(#13),#413);
#11=SHAPE_REPRESENTATION_RELATIONSHIP('SRR','None',#422,#12);
#12=ADVANCED_BREP_SHAPE_REPRESENTATION('',(#14),#412);
#13=STYLED_ITEM('',(#431),#14);
#14=MANIFOLD_SOLID_BREP('Solido1',#189);
#15=PLANE('',#200);
#16=PLANE('',#210);
#17=PLANE('',#218);
#18=PLANE('',#219);
#19=TOROIDAL_SURFACE('',#197,25.5,0.5);
#20=TOROIDAL_SURFACE('',#204,29.5,0.5);
#21=TOROIDAL_SURFACE('',#207,25.5,0.5);
#22=TOROIDAL_SURFACE('',#214,29.5,0.5);
#23=TOROIDAL_SURFACE('',#215,28.,24.5);
#24=FACE_BOUND('',#74,.T.);
#25=FACE_BOUND('',#76,.T.);
#26=FACE_BOUND('',#78,.T.);
#27=FACE_BOUND('',#80,.T.);
#28=FACE_BOUND('',#82,.T.);
#29=FACE_BOUND('',#84,.T.);
#30=FACE_BOUND('',#86,.T.);
#31=FACE_BOUND('',#88,.T.);
#32=FACE_BOUND('',#90,.T.);
#33=FACE_BOUND('',#92,.T.);
#34=FACE_BOUND('',#94,.T.);
#35=FACE_BOUND('',#96,.T.);
#36=FACE_BOUND('',#98,.T.);
#37=CYLINDRICAL_SURFACE('',#195,30.);
#38=CYLINDRICAL_SURFACE('',#202,25.);
#39=CYLINDRICAL_SURFACE('',#206,30.);
#40=CYLINDRICAL_SURFACE('',#212,25.);
#41=CIRCLE('',#193,30.);
#42=CIRCLE('',#194,30.);
#43=CIRCLE('',#196,30.);
#44=CIRCLE('',#198,25.);
#45=CIRCLE('',#199,25.5);
#46=CIRCLE('',#201,29.5);
#47=CIRCLE('',#203,25.);
#48=CIRCLE('',#205,30.);
#49=CIRCLE('',#208,25.);
#50=CIRCLE('',#209,25.5);
#51=CIRCLE('',#211,29.5);
#52=CIRCLE('',#213,25.);
#53=CIRCLE('',#216,24.5);
#54=CIRCLE('',#217,24.5);
#55=(
BOUNDED_SURFACE()
B_SPLINE_SURFACE(2,2,((#344,#345,#346),(#347,#348,#349),(#350,#351,#352),
(#353,#354,#355),(#356,#357,#358),(#359,#360,#361),(#362,#363,#364),(#365,
#366,#367),(#368,#369,#370)),.UNSPECIFIED.,.F.,.F.,.F.)
B_SPLINE_SURFACE_WITH_KNOTS((3,2,2,2,3),(3,3),(-2.73509041167779,-1.36754520583993,
-2.06545891501264E-12,1.3675452058358,2.73509041167366),(0.,1.570796326795),
 .UNSPECIFIED.)
GEOMETRIC_REPRESENTATION_ITEM()
RATIONAL_B_SPLINE_SURFACE(((1.,0.707106781186511,1.),(0.775195004572102,
0.548145644474842,0.775195004572102),(1.,0.707106781186511,1.),(0.775195004572102,
0.548145644474842,0.775195004572102),(1.,0.707106781186511,1.),(0.775195004572101,
0.548145644474841,0.775195004572101),(1.,0.707106781186511,1.),(0.775195004572102,
0.548145644474842,0.775195004572102),(1.,0.707106781186511,1.)))
REPRESENTATION_ITEM('')
SURFACE()
);
#56=FACE_OUTER_BOUND('',#71,.T.);
#57=FACE_OUTER_BOUND('',#72,.T.);
#58=FACE_OUTER_BOUND('',#73,.T.);
#59=FACE_OUTER_BOUND('',#75,.T.);
#60=FACE_OUTER_BOUND('',#77,.T.);
#61=FACE_OUTER_BOUND('',#79,.T.);
#62=FACE_OUTER_BOUND('',#81,.T.);
#63=FACE_OUTER_BOUND('',#83,.T.);
#64=FACE_OUTER_BOUND('',#85,.T.);
#65=FACE_OUTER_BOUND('',#87,.T.);
#66=FACE_OUTER_BOUND('',#89,.T.);
#67=FACE_OUTER_BOUND('',#91,.T.);
#68=FACE_OUTER_BOUND('',#93,.T.);
#69=FACE_OUTER_BOUND('',#95,.T.);
#70=FACE_OUTER_BOUND('',#97,.T.);
#71=EDGE_LOOP('',(#137,#138,#139,#140));
#72=EDGE_LOOP('',(#141,#142,#143,#144));
#73=EDGE_LOOP('',(#145));
#74=EDGE_LOOP('',(#146,#147));
#75=EDGE_LOOP('',(#148));
#76=EDGE_LOOP('',(#149));
#77=EDGE_LOOP('',(#150));
#78=EDGE_LOOP('',(#151));
#79=EDGE_LOOP('',(#152));
#80=EDGE_LOOP('',(#153));
#81=EDGE_LOOP('',(#154));
#82=EDGE_LOOP('',(#155));
#83=EDGE_LOOP('',(#156,#157));
#84=EDGE_LOOP('',(#158));
#85=EDGE_LOOP('',(#159));
#86=EDGE_LOOP('',(#160));
#87=EDGE_LOOP('',(#161));
#88=EDGE_LOOP('',(#162));
#89=EDGE_LOOP('',(#163));
#90=EDGE_LOOP('',(#164));
#91=EDGE_LOOP('',(#165));
#92=EDGE_LOOP('',(#166));
#93=EDGE_LOOP('',(#167));
#94=EDGE_LOOP('',(#168));
#95=EDGE_LOOP('',(#169));
#96=EDGE_LOOP('',(#170));
#97=EDGE_LOOP('',(#171));
#98=EDGE_LOOP('',(#172));
#99=ELLIPSE('',#191,42.7814212012645,30.);
#100=ELLIPSE('',#192,42.7814212012645,30.);
#101=B_SPLINE_CURVE_WITH_KNOTS('',3,(#308,#309,#310,#311,#312,#313,#314,
#315,#316,#317,#318,#319,#320,#321,#322,#323),.UNSPECIFIED.,.F.,.F.,(4,
3,3,3,3,4),(-0.00032194055499838,0.0161564082178153,0.0321625973433685,
0.0353306550588277,0.0510932458243689,0.0710314670303971),.UNSPECIFIED.);
#102=B_SPLINE_CURVE_WITH_KNOTS('',3,(#327,#328,#329,#330,#331,#332,#333,
#334,#335,#336,#337,#338,#339,#340,#341,#342),.UNSPECIFIED.,.F.,.F.,(4,
3,3,3,3,4),(-0.000321940531166368,0.0196206242766002,0.0353866501675952,
0.0385553974754372,0.0545650744471128,0.0710470139454328),.UNSPECIFIED.);
#103=VERTEX_POINT('',#306);
#104=VERTEX_POINT('',#307);
#105=VERTEX_POINT('',#324);
#106=VERTEX_POINT('',#326);
#107=VERTEX_POINT('',#374);
#108=VERTEX_POINT('',#377);
#109=VERTEX_POINT('',#379);
#110=VERTEX_POINT('',#382);
#111=VERTEX_POINT('',#385);
#112=VERTEX_POINT('',#388);
#113=VERTEX_POINT('',#392);
#114=VERTEX_POINT('',#394);
#115=VERTEX_POINT('',#397);
#116=VERTEX_POINT('',#400);
#117=VERTEX_POINT('',#404);
#118=VERTEX_POINT('',#406);
#119=EDGE_CURVE('',#103,#104,#101,.T.);
#120=EDGE_CURVE('',#103,#105,#99,.T.);
#121=EDGE_CURVE('',#106,#105,#102,.T.);
#122=EDGE_CURVE('',#106,#104,#100,.T.);
#123=EDGE_CURVE('',#105,#103,#41,.T.);
#124=EDGE_CURVE('',#106,#104,#42,.T.);
#125=EDGE_CURVE('',#107,#107,#43,.T.);
#126=EDGE_CURVE('',#108,#108,#44,.T.);
#127=EDGE_CURVE('',#109,#109,#45,.T.);
#128=EDGE_CURVE('',#110,#110,#46,.T.);
#129=EDGE_CURVE('',#111,#111,#47,.T.);
#130=EDGE_CURVE('',#112,#112,#48,.T.);
#131=EDGE_CURVE('',#113,#113,#49,.T.);
#132=EDGE_CURVE('',#114,#114,#50,.T.);
#133=EDGE_CURVE('',#115,#115,#51,.T.);
#134=EDGE_CURVE('',#116,#116,#52,.T.);
#135=EDGE_CURVE('',#117,#117,#53,.T.);
#136=EDGE_CURVE('',#118,#118,#54,.T.);
#137=ORIENTED_EDGE('',*,*,#119,.F.);
#138=ORIENTED_EDGE('',*,*,#120,.T.);
#139=ORIENTED_EDGE('',*,*,#121,.F.);
#140=ORIENTED_EDGE('',*,*,#122,.T.);
#141=ORIENTED_EDGE('',*,*,#121,.T.);
#142=ORIENTED_EDGE('',*,*,#123,.T.);
#143=ORIENTED_EDGE('',*,*,#119,.T.);
#144=ORIENTED_EDGE('',*,*,#124,.F.);
#145=ORIENTED_EDGE('',*,*,#125,.F.);
#146=ORIENTED_EDGE('',*,*,#120,.F.);
#147=ORIENTED_EDGE('',*,*,#123,.F.);
#148=ORIENTED_EDGE('',*,*,#126,.T.);
#149=ORIENTED_EDGE('',*,*,#127,.T.);
#150=ORIENTED_EDGE('',*,*,#128,.F.);
#151=ORIENTED_EDGE('',*,*,#127,.F.);
#152=ORIENTED_EDGE('',*,*,#129,.F.);
#153=ORIENTED_EDGE('',*,*,#126,.F.);
#154=ORIENTED_EDGE('',*,*,#130,.T.);
#155=ORIENTED_EDGE('',*,*,#128,.T.);
#156=ORIENTED_EDGE('',*,*,#122,.F.);
#157=ORIENTED_EDGE('',*,*,#124,.T.);
#158=ORIENTED_EDGE('',*,*,#130,.F.);
#159=ORIENTED_EDGE('',*,*,#131,.T.);
#160=ORIENTED_EDGE('',*,*,#132,.T.);
#161=ORIENTED_EDGE('',*,*,#133,.F.);
#162=ORIENTED_EDGE('',*,*,#132,.F.);
#163=ORIENTED_EDGE('',*,*,#134,.T.);
#164=ORIENTED_EDGE('',*,*,#131,.F.);
#165=ORIENTED_EDGE('',*,*,#133,.T.);
#166=ORIENTED_EDGE('',*,*,#125,.T.);
#167=ORIENTED_EDGE('',*,*,#135,.F.);
#168=ORIENTED_EDGE('',*,*,#136,.F.);
#169=ORIENTED_EDGE('',*,*,#129,.T.);
#170=ORIENTED_EDGE('',*,*,#135,.T.);
#171=ORIENTED_EDGE('',*,*,#134,.F.);
#172=ORIENTED_EDGE('',*,*,#136,.T.);
#173=B_SPLINE_SURFACE_WITH_KNOTS('',3,3,((#281,#282,#283,#284,#285),(#286,
#287,#288,#289,#290),(#291,#292,#293,#294,#295),(#296,#297,#298,#299,#300),
(#301,#302,#303,#304,#305)),.UNSPECIFIED.,.F.,.F.,.F.,(4,1,4),(4,1,4),(0.,
0.5,1.),(-0.408826286462519,-0.0584037552072809,0.408826286466369),
 .UNSPECIFIED.);
#174=ADVANCED_FACE('',(#56),#173,.T.);
#175=ADVANCED_FACE('',(#57),#55,.F.);
#176=ADVANCED_FACE('',(#58,#24),#37,.T.);
#177=ADVANCED_FACE('',(#59,#25),#19,.T.);
#178=ADVANCED_FACE('',(#60,#26),#15,.T.);
#179=ADVANCED_FACE('',(#61,#27),#38,.F.);
#180=ADVANCED_FACE('',(#62,#28),#20,.T.);
#181=ADVANCED_FACE('',(#63,#29),#39,.T.);
#182=ADVANCED_FACE('',(#64,#30),#21,.T.);
#183=ADVANCED_FACE('',(#65,#31),#16,.F.);
#184=ADVANCED_FACE('',(#66,#32),#40,.F.);
#185=ADVANCED_FACE('',(#67,#33),#22,.T.);
#186=ADVANCED_FACE('',(#68,#34),#23,.F.);
#187=ADVANCED_FACE('',(#69,#35),#17,.T.);
#188=ADVANCED_FACE('',(#70,#36),#18,.F.);
#189=CLOSED_SHELL('',(#174,#175,#176,#177,#178,#179,#180,#181,#182,#183,
#184,#185,#186,#187,#188));
#190=AXIS2_PLACEMENT_3D('placement',#280,#220,#221);
#191=AXIS2_PLACEMENT_3D('',#325,#222,#223);
#192=AXIS2_PLACEMENT_3D('',#343,#224,#225);
#193=AXIS2_PLACEMENT_3D('',#371,#226,#227);
#194=AXIS2_PLACEMENT_3D('',#372,#228,#229);
#195=AXIS2_PLACEMENT_3D('',#373,#230,#231);
#196=AXIS2_PLACEMENT_3D('',#375,#232,#233);
#197=AXIS2_PLACEMENT_3D('',#376,#234,#235);
#198=AXIS2_PLACEMENT_3D('',#378,#236,#237);
#199=AXIS2_PLACEMENT_3D('',#380,#238,#239);
#200=AXIS2_PLACEMENT_3D('',#381,#240,#241);
#201=AXIS2_PLACEMENT_3D('',#383,#242,#243);
#202=AXIS2_PLACEMENT_3D('',#384,#244,#245);
#203=AXIS2_PLACEMENT_3D('',#386,#246,#247);
#204=AXIS2_PLACEMENT_3D('',#387,#248,#249);
#205=AXIS2_PLACEMENT_3D('',#389,#250,#251);
#206=AXIS2_PLACEMENT_3D('',#390,#252,#253);
#207=AXIS2_PLACEMENT_3D('',#391,#254,#255);
#208=AXIS2_PLACEMENT_3D('',#393,#256,#257);
#209=AXIS2_PLACEMENT_3D('',#395,#258,#259);
#210=AXIS2_PLACEMENT_3D('',#396,#260,#261);
#211=AXIS2_PLACEMENT_3D('',#398,#262,#263);
#212=AXIS2_PLACEMENT_3D('',#399,#264,#265);
#213=AXIS2_PLACEMENT_3D('',#401,#266,#267);
#214=AXIS2_PLACEMENT_3D('',#402,#268,#269);
#215=AXIS2_PLACEMENT_3D('',#403,#270,#271);
#216=AXIS2_PLACEMENT_3D('',#405,#272,#273);
#217=AXIS2_PLACEMENT_3D('',#407,#274,#275);
#218=AXIS2_PLACEMENT_3D('',#408,#276,#277);
#219=AXIS2_PLACEMENT_3D('',#409,#278,#279);
#220=DIRECTION('axis',(0.,0.,1.));
#221=DIRECTION('refdir',(1.,0.,0.));
#222=DIRECTION('center_axis',(0.712926292385502,0.701238976116888,0.));
#223=DIRECTION('ref_axis',(0.701238976116888,-0.712926292385503,0.));
#224=DIRECTION('center_axis',(-0.701238976116888,-0.712926292385502,0.));
#225=DIRECTION('ref_axis',(0.712926292385503,-0.701238976116888,0.));
#226=DIRECTION('center_axis',(0.,1.,0.));
#227=DIRECTION('ref_axis',(-1.,0.,0.));
#228=DIRECTION('center_axis',(1.,6.12323399573677E-17,0.));
#229=DIRECTION('ref_axis',(-6.12323399573676E-17,1.,0.));
#230=DIRECTION('center_axis',(0.,1.,0.));
#231=DIRECTION('ref_axis',(-1.,0.,0.));
#232=DIRECTION('center_axis',(0.,-1.,0.));
#233=DIRECTION('ref_axis',(-1.,0.,0.));
#234=DIRECTION('center_axis',(-1.,-6.12323399573677E-17,0.));
#235=DIRECTION('ref_axis',(0.,0.,1.));
#236=DIRECTION('center_axis',(-1.,-6.12323399573677E-17,0.));
#237=DIRECTION('ref_axis',(-6.10622663543836E-17,1.,0.));
#238=DIRECTION('center_axis',(1.,6.12323399573677E-17,0.));
#239=DIRECTION('ref_axis',(-6.12323399573676E-17,1.,0.));
#240=DIRECTION('center_axis',(1.,6.12323399573677E-17,0.));
#241=DIRECTION('ref_axis',(0.,0.,1.));
#242=DIRECTION('center_axis',(-1.,-6.12323399573677E-17,0.));
#243=DIRECTION('ref_axis',(-6.12323399573677E-17,1.,0.));
#244=DIRECTION('center_axis',(1.,2.22044604925031E-16,0.));
#245=DIRECTION('ref_axis',(-2.22044604925031E-16,1.,0.));
#246=DIRECTION('center_axis',(1.,2.22044604925031E-16,0.));
#247=DIRECTION('ref_axis',(-2.22044604925031E-16,1.,0.));
#248=DIRECTION('center_axis',(1.,6.12323399573677E-17,0.));
#249=DIRECTION('ref_axis',(0.,0.,-1.));
#250=DIRECTION('center_axis',(1.,6.12323399573677E-17,0.));
#251=DIRECTION('ref_axis',(-6.01370805005293E-17,1.,0.));
#252=DIRECTION('center_axis',(1.,0.,0.));
#253=DIRECTION('ref_axis',(0.,1.,0.));
#254=DIRECTION('center_axis',(0.,1.,0.));
#255=DIRECTION('ref_axis',(0.,0.,1.));
#256=DIRECTION('center_axis',(0.,1.,0.));
#257=DIRECTION('ref_axis',(-1.,0.,0.));
#258=DIRECTION('center_axis',(0.,-1.,0.));
#259=DIRECTION('ref_axis',(-1.,0.,0.));
#260=DIRECTION('center_axis',(0.,1.,0.));
#261=DIRECTION('ref_axis',(0.,0.,1.));
#262=DIRECTION('center_axis',(0.,1.,0.));
#263=DIRECTION('ref_axis',(-1.,0.,0.));
#264=DIRECTION('center_axis',(0.,1.,0.));
#265=DIRECTION('ref_axis',(-1.,0.,0.));
#266=DIRECTION('center_axis',(0.,1.,0.));
#267=DIRECTION('ref_axis',(-1.,0.,0.));
#268=DIRECTION('center_axis',(0.,1.,0.));
#269=DIRECTION('ref_axis',(0.,0.,1.));
#270=DIRECTION('center_axis',(0.,0.,-1.));
#271=DIRECTION('ref_axis',(-1.,0.,0.));
#272=DIRECTION('center_axis',(-1.,-2.22044604925031E-16,0.));
#273=DIRECTION('ref_axis',(-2.22044604925031E-16,1.,0.));
#274=DIRECTION('center_axis',(0.,1.,0.));
#275=DIRECTION('ref_axis',(-1.,0.,0.));
#276=DIRECTION('center_axis',(1.,2.22044604925031E-16,0.));
#277=DIRECTION('ref_axis',(0.,0.,1.));
#278=DIRECTION('center_axis',(0.,1.,0.));
#279=DIRECTION('ref_axis',(0.,0.,1.));
#280=CARTESIAN_POINT('',(0.,0.,0.));
#281=CARTESIAN_POINT('Ctrl Pts',(27.527641324778,31.0135646531424,-11.9259784963069));
#282=CARTESIAN_POINT('Ctrl Pts',(28.9206851822351,29.5973033980609,-8.71054324546855));
#283=CARTESIAN_POINT('Ctrl Pts',(30.8465887839111,27.6393014030227,-0.632141457502361));
#284=CARTESIAN_POINT('Ctrl Pts',(29.3850331346914,29.1252163130637,7.63873149530226));
#285=CARTESIAN_POINT('Ctrl Pts',(27.5276413247321,31.0135646531891,11.9259784964129));
#286=CARTESIAN_POINT('Ctrl Pts',(27.5449223329199,31.1229158498984,-11.8860903316578));
#287=CARTESIAN_POINT('Ctrl Pts',(28.9301490855741,29.7174068516102,-8.67548500127995));
#288=CARTESIAN_POINT('Ctrl Pts',(30.8379079504919,27.779325163106,-0.627894510469517));
#289=CARTESIAN_POINT('Ctrl Pts',(29.3918913364296,29.2489038522104,7.60528322460013));
#290=CARTESIAN_POINT('Ctrl Pts',(27.5449223328743,31.1229158499447,11.8860903317637));
#291=CARTESIAN_POINT('Ctrl Pts',(27.6589907817523,31.3410092182477,-11.8410229414444));
#292=CARTESIAN_POINT('Ctrl Pts',(29.0434286765188,29.9565713234812,-8.63520957955158));
#293=CARTESIAN_POINT('Ctrl Pts',(30.9424627807902,28.0575372192098,-0.622736871976652));
#294=CARTESIAN_POINT('Ctrl Pts',(29.5049079747452,29.4950920252548,7.56660512569972));
#295=CARTESIAN_POINT('Ctrl Pts',(27.6589907817066,31.3410092182934,11.8410229415501));
#296=CARTESIAN_POINT('Ctrl Pts',(27.8770841501016,31.4550776670801,-11.8860903316578));
#297=CARTESIAN_POINT('Ctrl Pts',(29.2825931483898,30.0698509144259,-8.67548500127995));
#298=CARTESIAN_POINT('Ctrl Pts',(31.2206748368948,28.1620920495073,-0.627894510462732));
#299=CARTESIAN_POINT('Ctrl Pts',(29.7510961477896,29.6081086635704,7.60528322460012));
#300=CARTESIAN_POINT('Ctrl Pts',(27.8770841500553,31.4550776671257,11.8860903317637));
#301=CARTESIAN_POINT('Ctrl Pts',(27.9864353468576,31.472358675222,-11.9259784963069));
#302=CARTESIAN_POINT('Ctrl Pts',(29.4026966019391,30.0793148177649,-8.71054324546855));
#303=CARTESIAN_POINT('Ctrl Pts',(31.3606985969784,28.1534112160879,-0.632141457493166));
#304=CARTESIAN_POINT('Ctrl Pts',(29.8747836869363,29.6149668653086,7.63873149530226));
#305=CARTESIAN_POINT('Ctrl Pts',(27.9864353468109,31.4723586752679,11.9259784964129));
#306=CARTESIAN_POINT('',(27.5409836065574,31.,11.8951343827355));
#307=CARTESIAN_POINT('',(28.,31.4590163934426,11.8951343827356));
#308=CARTESIAN_POINT('Ctrl Pts',(27.5409832520583,31.0000003604074,11.8951342960899));
#309=CARTESIAN_POINT('Ctrl Pts',(27.545066650396,31.053953802508,11.8856785729169));
#310=CARTESIAN_POINT('Ctrl Pts',(27.5581693698809,31.1071171924043,11.8781517319334));
#311=CARTESIAN_POINT('Ctrl Pts',(27.5795714409822,31.1574059770359,11.8726765117022));
#312=CARTESIAN_POINT('Ctrl Pts',(27.6003602713711,31.2062538202759,11.8673581747904));
#313=CARTESIAN_POINT('Ctrl Pts',(27.6286631194276,31.2516471084354,11.8640541072155));
#314=CARTESIAN_POINT('Ctrl Pts',(27.6637616880303,31.2916568234246,11.863092362829));
#315=CARTESIAN_POINT('Ctrl Pts',(27.6707086439978,31.299575828084,11.8629020076045));
#316=CARTESIAN_POINT('Ctrl Pts',(27.6778984260107,31.3072535545799,11.8628054557635));
#317=CARTESIAN_POINT('Ctrl Pts',(27.6853224666524,31.3146775333476,11.8628053843485));
#318=CARTESIAN_POINT('Ctrl Pts',(27.7222605924609,31.3516153513033,11.8628050290247));
#319=CARTESIAN_POINT('Ctrl Pts',(27.7649610876074,31.3823155368858,11.8651603796358));
#320=CARTESIAN_POINT('Ctrl Pts',(27.8116418683446,31.4060076933693,11.8695368608802));
#321=CARTESIAN_POINT('Ctrl Pts',(27.8706887437125,31.4359760826932,11.875072705365));
#322=CARTESIAN_POINT('Ctrl Pts',(27.9347036508051,31.4540749032383,11.8836907112092));
#323=CARTESIAN_POINT('Ctrl Pts',(27.9999996395926,31.4590167479417,11.8951342960899));
#324=CARTESIAN_POINT('',(27.5409836065574,31.,-11.8951343827355));
#325=CARTESIAN_POINT('Origin',(0.,59.,0.));
#326=CARTESIAN_POINT('',(28.,31.4590163934426,-11.8951343827356));
#327=CARTESIAN_POINT('Ctrl Pts',(27.9999998677487,31.4590165235258,-11.8951343016437));
#328=CARTESIAN_POINT('Ctrl Pts',(27.9347037155874,31.4540748474855,-11.8836907115734));
#329=CARTESIAN_POINT('Ctrl Pts',(27.8706887737295,31.435976059542,-11.8750727060734));
#330=CARTESIAN_POINT('Ctrl Pts',(27.811641884525,31.4060076867703,-11.8695368614626));
#331=CARTESIAN_POINT('Ctrl Pts',(27.7649610893035,31.3823155415732,-11.8651603797861));
#332=CARTESIAN_POINT('Ctrl Pts',(27.7222605942243,31.3516153528404,-11.8628050290238));
#333=CARTESIAN_POINT('Ctrl Pts',(27.6853224667655,31.3146775332345,-11.8628053843476));
#334=CARTESIAN_POINT('Ctrl Pts',(27.6778984277115,31.3072535560545,-11.8628054557626));
#335=CARTESIAN_POINT('Ctrl Pts',(27.670708647206,31.2995758312329,-11.8629020075621));
#336=CARTESIAN_POINT('Ctrl Pts',(27.6637616926858,31.2916568282998,-11.8630923627052));
#337=CARTESIAN_POINT('Ctrl Pts',(27.6286631231247,31.2516471126046,-11.8640541069075));
#338=CARTESIAN_POINT('Ctrl Pts',(27.6003602726223,31.2062538252341,-11.8673581742914));
#339=CARTESIAN_POINT('Ctrl Pts',(27.5795714623795,31.1574059593996,-11.8726765114528));
#340=CARTESIAN_POINT('Ctrl Pts',(27.5581694120277,31.1071171515286,-11.8781517319386));
#341=CARTESIAN_POINT('Ctrl Pts',(27.5450667357649,31.0539537135437,-11.8856785734468));
#342=CARTESIAN_POINT('Ctrl Pts',(27.5409834764742,31.0000001322512,-11.8951343016437));
#343=CARTESIAN_POINT('Origin',(0.,59.,0.));
#344=CARTESIAN_POINT('Ctrl Pts',(27.5552834642799,31.,11.8619708819059));
#345=CARTESIAN_POINT('Ctrl Pts',(27.5552834642799,31.4447165357201,11.8619708819059));
#346=CARTESIAN_POINT('Ctrl Pts',(28.,31.4447165357201,11.8619708819059));
#347=CARTESIAN_POINT('Ctrl Pts',(17.8887245864459,31.,34.3173261221701));
#348=CARTESIAN_POINT('Ctrl Pts',(17.8887245864454,41.1112754135546,34.3173261221701));
#349=CARTESIAN_POINT('Ctrl Pts',(28.,41.1112754135541,34.3173261221701));
#350=CARTESIAN_POINT('Ctrl Pts',(-6.05563770675178,31.,29.382465042344));
#351=CARTESIAN_POINT('Ctrl Pts',(-6.05563770675353,65.0556377067535,29.382465042344));
#352=CARTESIAN_POINT('Ctrl Pts',(28.,65.0556377067518,29.382465042344));
#353=CARTESIAN_POINT('Ctrl Pts',(-29.9999999999495,31.,24.4476039625179));
#354=CARTESIAN_POINT('Ctrl Pts',(-29.9999999999525,88.9999999999525,24.4476039625179));
#355=CARTESIAN_POINT('Ctrl Pts',(28.,88.9999999999495,24.4476039625179));
#356=CARTESIAN_POINT('Ctrl Pts',(-30.,31.,6.19637674503792E-11));
#357=CARTESIAN_POINT('Ctrl Pts',(-30.000000000003,89.000000000003,6.19637674503792E-11));
#358=CARTESIAN_POINT('Ctrl Pts',(28.,89.,6.19637674503792E-11));
#359=CARTESIAN_POINT('Ctrl Pts',(-30.0000000000505,31.,-24.447603962394));
#360=CARTESIAN_POINT('Ctrl Pts',(-30.0000000000535,89.0000000000535,-24.447603962394));
#361=CARTESIAN_POINT('Ctrl Pts',(28.,89.0000000000505,-24.447603962394));
#362=CARTESIAN_POINT('Ctrl Pts',(-6.05563770687315,31.,-29.382465042319));
#363=CARTESIAN_POINT('Ctrl Pts',(-6.0556377068749,65.0556377068749,-29.382465042319));
#364=CARTESIAN_POINT('Ctrl Pts',(28.,65.0556377068732,-29.382465042319));
#365=CARTESIAN_POINT('Ctrl Pts',(17.8887245863042,31.,-34.3173261222439));
#366=CARTESIAN_POINT('Ctrl Pts',(17.8887245863037,41.1112754136963,-34.3173261222439));
#367=CARTESIAN_POINT('Ctrl Pts',(28.,41.1112754136958,-34.3173261222439));
#368=CARTESIAN_POINT('Ctrl Pts',(27.5552834642309,31.,-11.8619708820197));
#369=CARTESIAN_POINT('Ctrl Pts',(27.5552834642309,31.4447165357691,-11.8619708820197));
#370=CARTESIAN_POINT('Ctrl Pts',(28.,31.4447165357691,-11.8619708820197));
#371=CARTESIAN_POINT('Origin',(0.,31.,0.));
#372=CARTESIAN_POINT('Origin',(28.,59.,0.));
#373=CARTESIAN_POINT('Origin',(0.,0.,0.));
#374=CARTESIAN_POINT('',(30.,0.5,3.67394039744206E-15));
#375=CARTESIAN_POINT('Origin',(0.,0.5,0.));
#376=CARTESIAN_POINT('Origin',(58.5,59.,0.));
#377=CARTESIAN_POINT('',(58.5,34.,3.06161699786838E-15));
#378=CARTESIAN_POINT('Origin',(58.5,59.,0.));
#379=CARTESIAN_POINT('',(59.,33.5,-3.12284933782575E-15));
#380=CARTESIAN_POINT('Origin',(59.,59.,0.));
#381=CARTESIAN_POINT('Origin',(59.,59.,-4.93432455388958E-16));
#382=CARTESIAN_POINT('',(59.,29.5,3.61270805748469E-15));
#383=CARTESIAN_POINT('Origin',(59.,59.,0.));
#384=CARTESIAN_POINT('Origin',(59.,59.,0.));
#385=CARTESIAN_POINT('',(28.,34.,3.06161699786838E-15));
#386=CARTESIAN_POINT('Origin',(28.,59.,0.));
#387=CARTESIAN_POINT('Origin',(58.5,59.,0.));
#388=CARTESIAN_POINT('',(58.5,29.,-3.67394039744206E-15));
#389=CARTESIAN_POINT('Origin',(58.5,59.,0.));
#390=CARTESIAN_POINT('Origin',(28.,59.,0.));
#391=CARTESIAN_POINT('Origin',(0.,0.5,0.));
#392=CARTESIAN_POINT('',(25.,0.5,-3.06161699786838E-15));
#393=CARTESIAN_POINT('Origin',(0.,0.5,0.));
#394=CARTESIAN_POINT('',(25.5,0.,3.12284933782575E-15));
#395=CARTESIAN_POINT('Origin',(0.,0.,0.));
#396=CARTESIAN_POINT('Origin',(-2.27989152134267E-15,0.,-4.93432455388958E-16));
#397=CARTESIAN_POINT('',(29.5,0.,-3.61270805748469E-15));
#398=CARTESIAN_POINT('Origin',(0.,0.,0.));
#399=CARTESIAN_POINT('Origin',(0.,0.,0.));
#400=CARTESIAN_POINT('',(25.,31.,3.06161699786838E-15));
#401=CARTESIAN_POINT('Origin',(0.,31.,0.));
#402=CARTESIAN_POINT('Origin',(0.,0.5,0.));
#403=CARTESIAN_POINT('Origin',(28.,31.,0.));
#404=CARTESIAN_POINT('',(28.,83.5,0.));
#405=CARTESIAN_POINT('Origin',(28.,59.,0.));
#406=CARTESIAN_POINT('',(-24.5,31.,0.));
#407=CARTESIAN_POINT('Origin',(0.,31.,0.));
#408=CARTESIAN_POINT('Origin',(28.,59.,0.));
#409=CARTESIAN_POINT('Origin',(-1.43937264275587E-15,31.,0.));
#410=UNCERTAINTY_MEASURE_WITH_UNIT(LENGTH_MEASURE(0.01),#414,
'DISTANCE_ACCURACY_VALUE',
'Maximum model space distance between geometric entities at asserted c
onnectivities');
#411=UNCERTAINTY_MEASURE_WITH_UNIT(LENGTH_MEASURE(1.E-6),#414,
'DISTANCE_ACCURACY_VALUE',
'Maximum model space distance between geometric entities at asserted c
onnectivities');
#412=(
GEOMETRIC_REPRESENTATION_CONTEXT(3)
GLOBAL_UNCERTAINTY_ASSIGNED_CONTEXT((#410))
GLOBAL_UNIT_ASSIGNED_CONTEXT((#414,#417,#415))
REPRESENTATION_CONTEXT('','3D')
);
#413=(
GEOMETRIC_REPRESENTATION_CONTEXT(3)
GLOBAL_UNCERTAINTY_ASSIGNED_CONTEXT((#411))
GLOBAL_UNIT_ASSIGNED_CONTEXT((#414,#417,#415))
REPRESENTATION_CONTEXT('','3D')
);
#414=(
LENGTH_UNIT()
NAMED_UNIT(*)
SI_UNIT(.MILLI.,.METRE.)
);
#415=(
NAMED_UNIT(*)
SI_UNIT($,.STERADIAN.)
SOLID_ANGLE_UNIT()
);
#416=DIMENSIONAL_EXPONENTS(0.,0.,0.,0.,0.,0.,0.);
#417=(
CONVERSION_BASED_UNIT('degree',#419)
NAMED_UNIT(#416)
PLANE_ANGLE_UNIT()
);
#418=(
NAMED_UNIT(*)
PLANE_ANGLE_UNIT()
SI_UNIT($,.RADIAN.)
);
#419=PLANE_ANGLE_MEASURE_WITH_UNIT(PLANE_ANGLE_MEASURE(0.01745329252),#418);
#420=SHAPE_DEFINITION_REPRESENTATION(#421,#422);
#421=PRODUCT_DEFINITION_SHAPE('',$,#424);
#422=SHAPE_REPRESENTATION('',(#190),#412);
#423=PRODUCT_DEFINITION_CONTEXT('part definition',#428,'design');
#424=PRODUCT_DEFINITION('EL500500','EL500500',#425,#423);
#425=PRODUCT_DEFINITION_FORMATION('',$,#430);
#426=PRODUCT_RELATED_PRODUCT_CATEGORY('EL500500','EL500500',(#430));
#427=APPLICATION_PROTOCOL_DEFINITION('international standard',
'automotive_design',2009,#428);
#428=APPLICATION_CONTEXT(
'Core Data for Automotive Mechanical Design Process');
#429=PRODUCT_CONTEXT('part definition',#428,'mechanical');
#430=PRODUCT('EL500500','EL500500',$,(#429));
#431=PRESENTATION_STYLE_ASSIGNMENT((#432));
#432=SURFACE_STYLE_USAGE(.BOTH.,#433);
#433=SURFACE_SIDE_STYLE('',(#434));
#434=SURFACE_STYLE_FILL_AREA(#435);
#435=FILL_AREA_STYLE('',(#436));
#436=FILL_AREA_STYLE_COLOUR('',#437);
#437=COLOUR_RGB('',0.8,0.8,0.8);
ENDSEC;
END-ISO-10303-21;
