ISO-10303-21;
HEADER;
/* Generated by software containing ST-Developer
 * from STEP Tools, Inc. (www.steptools.com) 
 */

FILE_DESCRIPTION(
/* description */ (''),
/* implementation_level */ '2;1');

FILE_NAME(
/* name */ 'C:\\Users\\Gabriele\\Desktop\\catalogo\\EL50\\EL500900.stp',

/* time_stamp */ '2016-11-09T12:41:51+01:00',
/* author */ ('Gabriele'),
/* organization */ (''),
/* preprocessor_version */ 'ST-DEVELOPER v16.5',
/* originating_system */ 'Autodesk Inventor 2017',
/* authorisation */ '');

FILE_SCHEMA (('AUTOMOTIVE_DESIGN { 1 0 10303 214 3 1 1 }'));
ENDSEC;

DATA;
#10=MECHANICAL_DESIGN_GEOMETRIC_PRESENTATION_REPRESENTATION('',(#13),#394);
#11=SHAPE_REPRESENTATION_RELATIONSHIP('SRR','None',#403,#12);
#12=ADVANCED_BREP_SHAPE_REPRESENTATION('',(#14),#393);
#13=STYLED_ITEM('',(#412),#14);
#14=MANIFOLD_SOLID_BREP('Solido1',#189);
#15=PLANE('',#202);
#16=PLANE('',#212);
#17=PLANE('',#220);
#18=PLANE('',#221);
#19=TOROIDAL_SURFACE('',#199,45.5,0.5);
#20=TOROIDAL_SURFACE('',#206,52.5,0.5);
#21=TOROIDAL_SURFACE('',#209,45.5,0.5);
#22=TOROIDAL_SURFACE('',#216,52.5,0.5);
#23=TOROIDAL_SURFACE('',#217,48.,44.);
#24=FACE_BOUND('',#74,.T.);
#25=FACE_BOUND('',#76,.T.);
#26=FACE_BOUND('',#78,.T.);
#27=FACE_BOUND('',#80,.T.);
#28=FACE_BOUND('',#82,.T.);
#29=FACE_BOUND('',#84,.T.);
#30=FACE_BOUND('',#86,.T.);
#31=FACE_BOUND('',#88,.T.);
#32=FACE_BOUND('',#90,.T.);
#33=FACE_BOUND('',#92,.T.);
#34=FACE_BOUND('',#94,.T.);
#35=FACE_BOUND('',#96,.T.);
#36=FACE_BOUND('',#98,.T.);
#37=CYLINDRICAL_SURFACE('',#197,53.);
#38=CYLINDRICAL_SURFACE('',#204,45.);
#39=CYLINDRICAL_SURFACE('',#208,53.);
#40=CYLINDRICAL_SURFACE('',#214,45.);
#41=CIRCLE('',#195,53.);
#42=CIRCLE('',#196,53.);
#43=CIRCLE('',#198,53.);
#44=CIRCLE('',#200,45.);
#45=CIRCLE('',#201,45.5);
#46=CIRCLE('',#203,52.5);
#47=CIRCLE('',#205,45.);
#48=CIRCLE('',#207,53.);
#49=CIRCLE('',#210,45.);
#50=CIRCLE('',#211,45.5);
#51=CIRCLE('',#213,52.5);
#52=CIRCLE('',#215,45.);
#53=CIRCLE('',#218,44.);
#54=CIRCLE('',#219,44.);
#55=(
BOUNDED_SURFACE()
B_SPLINE_SURFACE(2,2,((#325,#326,#327),(#328,#329,#330),(#331,#332,#333),
(#334,#335,#336),(#337,#338,#339),(#340,#341,#342),(#343,#344,#345),(#346,
#347,#348),(#349,#350,#351)),.UNSPECIFIED.,.F.,.F.,.F.)
B_SPLINE_SURFACE_WITH_KNOTS((3,2,2,2,3),(3,3),(-2.68508800885592,-1.34254400442796,
-1.11022302462516E-15,1.34254400442796,2.68508800885592),(0.,1.57079632679534),
 .UNSPECIFIED.)
GEOMETRIC_REPRESENTATION_ITEM()
RATIONAL_B_SPLINE_SURFACE(((1.,0.707106781186391,1.),(0.783031136435916,
0.553686626453923,0.783031136435916),(1.,0.707106781186391,1.),(0.783031136435917,
0.553686626453924,0.783031136435917),(1.,0.707106781186391,1.),(0.783031136435916,
0.553686626453923,0.783031136435916),(1.,0.707106781186391,1.),(0.783031136435918,
0.553686626453924,0.783031136435918),(1.,0.707106781186391,1.)))
REPRESENTATION_ITEM('')
SURFACE()
);
#56=FACE_OUTER_BOUND('',#71,.T.);
#57=FACE_OUTER_BOUND('',#72,.T.);
#58=FACE_OUTER_BOUND('',#73,.T.);
#59=FACE_OUTER_BOUND('',#75,.T.);
#60=FACE_OUTER_BOUND('',#77,.T.);
#61=FACE_OUTER_BOUND('',#79,.T.);
#62=FACE_OUTER_BOUND('',#81,.T.);
#63=FACE_OUTER_BOUND('',#83,.T.);
#64=FACE_OUTER_BOUND('',#85,.T.);
#65=FACE_OUTER_BOUND('',#87,.T.);
#66=FACE_OUTER_BOUND('',#89,.T.);
#67=FACE_OUTER_BOUND('',#91,.T.);
#68=FACE_OUTER_BOUND('',#93,.T.);
#69=FACE_OUTER_BOUND('',#95,.T.);
#70=FACE_OUTER_BOUND('',#97,.T.);
#71=EDGE_LOOP('',(#137,#138,#139,#140));
#72=EDGE_LOOP('',(#141,#142,#143,#144));
#73=EDGE_LOOP('',(#145));
#74=EDGE_LOOP('',(#146,#147));
#75=EDGE_LOOP('',(#148));
#76=EDGE_LOOP('',(#149));
#77=EDGE_LOOP('',(#150));
#78=EDGE_LOOP('',(#151));
#79=EDGE_LOOP('',(#152));
#80=EDGE_LOOP('',(#153));
#81=EDGE_LOOP('',(#154));
#82=EDGE_LOOP('',(#155));
#83=EDGE_LOOP('',(#156,#157));
#84=EDGE_LOOP('',(#158));
#85=EDGE_LOOP('',(#159));
#86=EDGE_LOOP('',(#160));
#87=EDGE_LOOP('',(#161));
#88=EDGE_LOOP('',(#162));
#89=EDGE_LOOP('',(#163));
#90=EDGE_LOOP('',(#164));
#91=EDGE_LOOP('',(#165));
#92=EDGE_LOOP('',(#166));
#93=EDGE_LOOP('',(#167));
#94=EDGE_LOOP('',(#168));
#95=EDGE_LOOP('',(#169));
#96=EDGE_LOOP('',(#170));
#97=EDGE_LOOP('',(#171));
#98=EDGE_LOOP('',(#172));
#99=ELLIPSE('',#191,0.527206117143052,0.500094484528386);
#100=ELLIPSE('',#192,75.3077021293307,53.);
#101=ELLIPSE('',#193,0.527206117145834,0.500094484529463);
#102=ELLIPSE('',#194,75.3077021293307,53.);
#103=VERTEX_POINT('',#317);
#104=VERTEX_POINT('',#318);
#105=VERTEX_POINT('',#320);
#106=VERTEX_POINT('',#322);
#107=VERTEX_POINT('',#355);
#108=VERTEX_POINT('',#358);
#109=VERTEX_POINT('',#360);
#110=VERTEX_POINT('',#363);
#111=VERTEX_POINT('',#366);
#112=VERTEX_POINT('',#369);
#113=VERTEX_POINT('',#373);
#114=VERTEX_POINT('',#375);
#115=VERTEX_POINT('',#378);
#116=VERTEX_POINT('',#381);
#117=VERTEX_POINT('',#385);
#118=VERTEX_POINT('',#387);
#119=EDGE_CURVE('',#103,#104,#99,.T.);
#120=EDGE_CURVE('',#103,#105,#100,.T.);
#121=EDGE_CURVE('',#106,#105,#101,.T.);
#122=EDGE_CURVE('',#106,#104,#102,.T.);
#123=EDGE_CURVE('',#105,#103,#41,.T.);
#124=EDGE_CURVE('',#106,#104,#42,.T.);
#125=EDGE_CURVE('',#107,#107,#43,.T.);
#126=EDGE_CURVE('',#108,#108,#44,.T.);
#127=EDGE_CURVE('',#109,#109,#45,.T.);
#128=EDGE_CURVE('',#110,#110,#46,.T.);
#129=EDGE_CURVE('',#111,#111,#47,.T.);
#130=EDGE_CURVE('',#112,#112,#48,.T.);
#131=EDGE_CURVE('',#113,#113,#49,.T.);
#132=EDGE_CURVE('',#114,#114,#50,.T.);
#133=EDGE_CURVE('',#115,#115,#51,.T.);
#134=EDGE_CURVE('',#116,#116,#52,.T.);
#135=EDGE_CURVE('',#117,#117,#53,.T.);
#136=EDGE_CURVE('',#118,#118,#54,.T.);
#137=ORIENTED_EDGE('',*,*,#119,.F.);
#138=ORIENTED_EDGE('',*,*,#120,.T.);
#139=ORIENTED_EDGE('',*,*,#121,.F.);
#140=ORIENTED_EDGE('',*,*,#122,.T.);
#141=ORIENTED_EDGE('',*,*,#121,.T.);
#142=ORIENTED_EDGE('',*,*,#123,.T.);
#143=ORIENTED_EDGE('',*,*,#119,.T.);
#144=ORIENTED_EDGE('',*,*,#124,.F.);
#145=ORIENTED_EDGE('',*,*,#125,.F.);
#146=ORIENTED_EDGE('',*,*,#120,.F.);
#147=ORIENTED_EDGE('',*,*,#123,.F.);
#148=ORIENTED_EDGE('',*,*,#126,.T.);
#149=ORIENTED_EDGE('',*,*,#127,.T.);
#150=ORIENTED_EDGE('',*,*,#128,.F.);
#151=ORIENTED_EDGE('',*,*,#127,.F.);
#152=ORIENTED_EDGE('',*,*,#129,.F.);
#153=ORIENTED_EDGE('',*,*,#126,.F.);
#154=ORIENTED_EDGE('',*,*,#130,.T.);
#155=ORIENTED_EDGE('',*,*,#128,.T.);
#156=ORIENTED_EDGE('',*,*,#122,.F.);
#157=ORIENTED_EDGE('',*,*,#124,.T.);
#158=ORIENTED_EDGE('',*,*,#130,.F.);
#159=ORIENTED_EDGE('',*,*,#131,.T.);
#160=ORIENTED_EDGE('',*,*,#132,.T.);
#161=ORIENTED_EDGE('',*,*,#133,.F.);
#162=ORIENTED_EDGE('',*,*,#132,.F.);
#163=ORIENTED_EDGE('',*,*,#134,.T.);
#164=ORIENTED_EDGE('',*,*,#131,.F.);
#165=ORIENTED_EDGE('',*,*,#133,.T.);
#166=ORIENTED_EDGE('',*,*,#125,.T.);
#167=ORIENTED_EDGE('',*,*,#135,.F.);
#168=ORIENTED_EDGE('',*,*,#136,.F.);
#169=ORIENTED_EDGE('',*,*,#129,.T.);
#170=ORIENTED_EDGE('',*,*,#135,.T.);
#171=ORIENTED_EDGE('',*,*,#134,.F.);
#172=ORIENTED_EDGE('',*,*,#136,.T.);
#173=B_SPLINE_SURFACE_WITH_KNOTS('',3,3,((#287,#288,#289,#290,#291,#292),
(#293,#294,#295,#296,#297,#298),(#299,#300,#301,#302,#303,#304),(#305,#306,
#307,#308,#309,#310),(#311,#312,#313,#314,#315,#316)),.UNSPECIFIED.,.F.,
 .F.,.F.,(4,1,4),(4,1,1,4),(0.,0.5,1.),(-0.458087947393107,-0.0654411353449497,
0.196323406020488,0.458087947385927),.UNSPECIFIED.);
#174=ADVANCED_FACE('',(#56),#173,.T.);
#175=ADVANCED_FACE('',(#57),#55,.F.);
#176=ADVANCED_FACE('',(#58,#24),#37,.T.);
#177=ADVANCED_FACE('',(#59,#25),#19,.T.);
#178=ADVANCED_FACE('',(#60,#26),#15,.T.);
#179=ADVANCED_FACE('',(#61,#27),#38,.F.);
#180=ADVANCED_FACE('',(#62,#28),#20,.T.);
#181=ADVANCED_FACE('',(#63,#29),#39,.T.);
#182=ADVANCED_FACE('',(#64,#30),#21,.T.);
#183=ADVANCED_FACE('',(#65,#31),#16,.F.);
#184=ADVANCED_FACE('',(#66,#32),#40,.F.);
#185=ADVANCED_FACE('',(#67,#33),#22,.T.);
#186=ADVANCED_FACE('',(#68,#34),#23,.F.);
#187=ADVANCED_FACE('',(#69,#35),#17,.T.);
#188=ADVANCED_FACE('',(#70,#36),#18,.F.);
#189=CLOSED_SHELL('',(#174,#175,#176,#177,#178,#179,#180,#181,#182,#183,
#184,#185,#186,#187,#188));
#190=AXIS2_PLACEMENT_3D('placement',#286,#222,#223);
#191=AXIS2_PLACEMENT_3D('',#319,#224,#225);
#192=AXIS2_PLACEMENT_3D('',#321,#226,#227);
#193=AXIS2_PLACEMENT_3D('',#323,#228,#229);
#194=AXIS2_PLACEMENT_3D('',#324,#230,#231);
#195=AXIS2_PLACEMENT_3D('',#352,#232,#233);
#196=AXIS2_PLACEMENT_3D('',#353,#234,#235);
#197=AXIS2_PLACEMENT_3D('',#354,#236,#237);
#198=AXIS2_PLACEMENT_3D('',#356,#238,#239);
#199=AXIS2_PLACEMENT_3D('',#357,#240,#241);
#200=AXIS2_PLACEMENT_3D('',#359,#242,#243);
#201=AXIS2_PLACEMENT_3D('',#361,#244,#245);
#202=AXIS2_PLACEMENT_3D('',#362,#246,#247);
#203=AXIS2_PLACEMENT_3D('',#364,#248,#249);
#204=AXIS2_PLACEMENT_3D('',#365,#250,#251);
#205=AXIS2_PLACEMENT_3D('',#367,#252,#253);
#206=AXIS2_PLACEMENT_3D('',#368,#254,#255);
#207=AXIS2_PLACEMENT_3D('',#370,#256,#257);
#208=AXIS2_PLACEMENT_3D('',#371,#258,#259);
#209=AXIS2_PLACEMENT_3D('',#372,#260,#261);
#210=AXIS2_PLACEMENT_3D('',#374,#262,#263);
#211=AXIS2_PLACEMENT_3D('',#376,#264,#265);
#212=AXIS2_PLACEMENT_3D('',#377,#266,#267);
#213=AXIS2_PLACEMENT_3D('',#379,#268,#269);
#214=AXIS2_PLACEMENT_3D('',#380,#270,#271);
#215=AXIS2_PLACEMENT_3D('',#382,#272,#273);
#216=AXIS2_PLACEMENT_3D('',#383,#274,#275);
#217=AXIS2_PLACEMENT_3D('',#384,#276,#277);
#218=AXIS2_PLACEMENT_3D('',#386,#278,#279);
#219=AXIS2_PLACEMENT_3D('',#388,#280,#281);
#220=AXIS2_PLACEMENT_3D('',#389,#282,#283);
#221=AXIS2_PLACEMENT_3D('',#390,#284,#285);
#222=DIRECTION('axis',(0.,0.,1.));
#223=DIRECTION('refdir',(1.,0.,0.));
#224=DIRECTION('center_axis',(0.200264861694393,-0.200264861694347,-0.959055770193303));
#225=DIRECTION('ref_axis',(-0.678154806700531,0.678154870579011,-0.28321728347495));
#226=DIRECTION('center_axis',(0.710418702035564,0.703779274913736,0.));
#227=DIRECTION('ref_axis',(0.703779274913736,-0.710418702035564,0.));
#228=DIRECTION('center_axis',(0.200264861693723,-0.200264861693677,0.959055770193583));
#229=DIRECTION('ref_axis',(0.678154806702365,-0.678154870577573,-0.283217283474003));
#230=DIRECTION('center_axis',(-0.703779274913736,-0.710418702035564,0.));
#231=DIRECTION('ref_axis',(0.710418702035564,-0.703779274913736,0.));
#232=DIRECTION('center_axis',(0.,1.,0.));
#233=DIRECTION('ref_axis',(-1.,0.,0.));
#234=DIRECTION('center_axis',(1.,6.12323399573677E-17,0.));
#235=DIRECTION('ref_axis',(-6.12323399573677E-17,1.,0.));
#236=DIRECTION('center_axis',(0.,1.,0.));
#237=DIRECTION('ref_axis',(-1.,0.,0.));
#238=DIRECTION('center_axis',(0.,-1.,0.));
#239=DIRECTION('ref_axis',(-1.,0.,0.));
#240=DIRECTION('center_axis',(-1.,-6.12323399573677E-17,0.));
#241=DIRECTION('ref_axis',(0.,0.,1.));
#242=DIRECTION('center_axis',(-1.,-6.12323399573677E-17,0.));
#243=DIRECTION('ref_axis',(-6.16790569236198E-17,1.,0.));
#244=DIRECTION('center_axis',(1.,6.12323399573677E-17,0.));
#245=DIRECTION('ref_axis',(-6.12323399573677E-17,1.,0.));
#246=DIRECTION('center_axis',(1.,6.12323399573677E-17,0.));
#247=DIRECTION('ref_axis',(0.,0.,1.));
#248=DIRECTION('center_axis',(-1.,-6.12323399573677E-17,0.));
#249=DIRECTION('ref_axis',(-6.12323399573677E-17,1.,0.));
#250=DIRECTION('center_axis',(1.,2.22044604925031E-16,0.));
#251=DIRECTION('ref_axis',(-2.22044604925031E-16,1.,0.));
#252=DIRECTION('center_axis',(1.,2.22044604925031E-16,0.));
#253=DIRECTION('ref_axis',(-2.22044604925031E-16,1.,0.));
#254=DIRECTION('center_axis',(1.,6.12323399573677E-17,0.));
#255=DIRECTION('ref_axis',(0.,0.,-1.));
#256=DIRECTION('center_axis',(1.,6.12323399573677E-17,0.));
#257=DIRECTION('ref_axis',(-6.15335874497433E-17,1.,0.));
#258=DIRECTION('center_axis',(1.,0.,0.));
#259=DIRECTION('ref_axis',(0.,1.,0.));
#260=DIRECTION('center_axis',(0.,1.,0.));
#261=DIRECTION('ref_axis',(0.,0.,1.));
#262=DIRECTION('center_axis',(0.,1.,0.));
#263=DIRECTION('ref_axis',(-1.,0.,0.));
#264=DIRECTION('center_axis',(0.,-1.,0.));
#265=DIRECTION('ref_axis',(-1.,0.,0.));
#266=DIRECTION('center_axis',(0.,1.,0.));
#267=DIRECTION('ref_axis',(0.,0.,1.));
#268=DIRECTION('center_axis',(0.,1.,0.));
#269=DIRECTION('ref_axis',(-1.,0.,0.));
#270=DIRECTION('center_axis',(0.,1.,0.));
#271=DIRECTION('ref_axis',(-1.,0.,0.));
#272=DIRECTION('center_axis',(0.,1.,0.));
#273=DIRECTION('ref_axis',(-1.,0.,0.));
#274=DIRECTION('center_axis',(0.,1.,0.));
#275=DIRECTION('ref_axis',(0.,0.,1.));
#276=DIRECTION('center_axis',(0.,0.,-1.));
#277=DIRECTION('ref_axis',(-1.,0.,0.));
#278=DIRECTION('center_axis',(-1.,-2.22044604925031E-16,0.));
#279=DIRECTION('ref_axis',(-2.22044604925031E-16,1.,0.));
#280=DIRECTION('center_axis',(0.,1.,0.));
#281=DIRECTION('ref_axis',(-1.,0.,0.));
#282=DIRECTION('center_axis',(1.,2.22044604925031E-16,0.));
#283=DIRECTION('ref_axis',(0.,0.,1.));
#284=DIRECTION('center_axis',(0.,1.,0.));
#285=DIRECTION('ref_axis',(0.,0.,1.));
#286=CARTESIAN_POINT('',(0.,0.,0.));
#287=CARTESIAN_POINT('Ctrl Pts',(47.5356846927862,51.0158654516215,-23.4384018394601));
#288=CARTESIAN_POINT('Ctrl Pts',(50.6033559467088,47.9192539028506,-17.2168234884105));
#289=CARTESIAN_POINT('Ctrl Pts',(53.6493929860889,44.8444806649857,-5.83381295640137));
#290=CARTESIAN_POINT('Ctrl Pts',(52.5765057222752,45.92748950676,10.4578531755687));
#291=CARTESIAN_POINT('Ctrl Pts',(49.5807988622065,48.951457752301,19.2906829384044));
#292=CARTESIAN_POINT('Ctrl Pts',(47.5356846929545,51.0158654514516,23.4384018391188));
#293=CARTESIAN_POINT('Ctrl Pts',(47.5561636765781,51.1205793070372,-23.3968681835809));
#294=CARTESIAN_POINT('Ctrl Pts',(50.6152218398754,48.0366321294526,-17.1786071240661));
#295=CARTESIAN_POINT('Ctrl Pts',(53.645553347741,44.9793194271841,-5.81757309203866));
#296=CARTESIAN_POINT('Ctrl Pts',(52.5787619928445,46.0557935766304,10.4303884672523));
#297=CARTESIAN_POINT('Ctrl Pts',(49.595535785581,49.0646145218416,19.2513608102154));
#298=CARTESIAN_POINT('Ctrl Pts',(47.556163676746,51.120579306868,23.3968681832397));
#299=CARTESIAN_POINT('Ctrl Pts',(47.6705315130231,51.3294684869769,-23.3502625809572));
#300=CARTESIAN_POINT('Ctrl Pts',(50.7296134900581,48.2703865099419,-17.1349664498746));
#301=CARTESIAN_POINT('Ctrl Pts',(53.7526765205371,45.2473234794629,-5.79896323506938));
#302=CARTESIAN_POINT('Ctrl Pts',(52.6889770002057,46.3110229997943,10.3987433364205));
#303=CARTESIAN_POINT('Ctrl Pts',(49.709919497851,49.290080502149,19.2067318265469));
#304=CARTESIAN_POINT('Ctrl Pts',(47.6705315131909,51.3294684868091,23.3502625806162));
#305=CARTESIAN_POINT('Ctrl Pts',(47.8794206929628,51.4438363234219,-23.3968681835809));
#306=CARTESIAN_POINT('Ctrl Pts',(50.9633678705474,48.3847781601246,-17.1786071240661));
#307=CARTESIAN_POINT('Ctrl Pts',(54.0206805728159,45.354446652259,-5.81757309203866));
#308=CARTESIAN_POINT('Ctrl Pts',(52.9442064233696,46.4212380071555,10.4303884672523));
#309=CARTESIAN_POINT('Ctrl Pts',(49.9353854781584,49.404464214419,19.2513608102154));
#310=CARTESIAN_POINT('Ctrl Pts',(47.879420693132,51.443836323254,23.3968681832397));
#311=CARTESIAN_POINT('Ctrl Pts',(47.9841345483786,51.4643153072138,-23.4384018394601));
#312=CARTESIAN_POINT('Ctrl Pts',(51.0807460971495,48.3966440532912,-17.2168234884105));
#313=CARTESIAN_POINT('Ctrl Pts',(54.1555193350143,45.350607013911,-5.83381295640137));
#314=CARTESIAN_POINT('Ctrl Pts',(53.07251049324,46.4234942777249,10.4578531755687));
#315=CARTESIAN_POINT('Ctrl Pts',(50.048542247699,49.4192011377935,19.2906829384044));
#316=CARTESIAN_POINT('Ctrl Pts',(47.9841345485484,51.4643153070455,23.4384018391188));
#317=CARTESIAN_POINT('',(47.5514018691589,51.,23.4064986761744));
#318=CARTESIAN_POINT('',(48.,51.4485981308411,23.4064986761744));
#319=CARTESIAN_POINT('Origin',(48.052102550851,50.9478974465401,23.5219320710536));
#320=CARTESIAN_POINT('',(47.5514018691589,51.,-23.4064986761744));
#321=CARTESIAN_POINT('Origin',(0.,99.,0.));
#322=CARTESIAN_POINT('',(48.,51.4485981308411,-23.4064986761744));
#323=CARTESIAN_POINT('Origin',(48.052102550853,50.9478974465382,-23.521932071054));
#324=CARTESIAN_POINT('Origin',(0.,99.,0.));
#325=CARTESIAN_POINT('Ctrl Pts',(47.5727351789028,51.,23.363109116682));
#326=CARTESIAN_POINT('Ctrl Pts',(47.5727351789027,51.4272648210973,23.363109116682));
#327=CARTESIAN_POINT('Ctrl Pts',(48.,51.4272648210972,23.363109116682));
#328=CARTESIAN_POINT('Ctrl Pts',(29.0147947468381,51.,61.1514009588017));
#329=CARTESIAN_POINT('Ctrl Pts',(29.0147947468339,69.9852052531661,61.1514009588017));
#330=CARTESIAN_POINT('Ctrl Pts',(48.,69.9852052531619,61.1514009588017));
#331=CARTESIAN_POINT('Ctrl Pts',(-11.9926026265809,51.,51.6253569696222));
#332=CARTESIAN_POINT('Ctrl Pts',(-11.9926026265942,110.992602626594,51.6253569696222));
#333=CARTESIAN_POINT('Ctrl Pts',(48.,110.992602626581,51.6253569696222));
#334=CARTESIAN_POINT('Ctrl Pts',(-53.,51.,42.0993129804428));
#335=CARTESIAN_POINT('Ctrl Pts',(-53.0000000000222,152.000000000022,42.0993129804428));
#336=CARTESIAN_POINT('Ctrl Pts',(48.,152.,42.0993129804428));
#337=CARTESIAN_POINT('Ctrl Pts',(-53.,51.,5.88418203051333E-14));
#338=CARTESIAN_POINT('Ctrl Pts',(-53.0000000000223,152.000000000022,5.88418203051333E-14));
#339=CARTESIAN_POINT('Ctrl Pts',(48.,152.,5.88418203051333E-14));
#340=CARTESIAN_POINT('Ctrl Pts',(-53.,51.,-42.0993129804427));
#341=CARTESIAN_POINT('Ctrl Pts',(-53.0000000000223,152.000000000022,-42.0993129804427));
#342=CARTESIAN_POINT('Ctrl Pts',(48.,152.,-42.0993129804427));
#343=CARTESIAN_POINT('Ctrl Pts',(-11.992602626581,51.,-51.6253569696222));
#344=CARTESIAN_POINT('Ctrl Pts',(-11.9926026265943,110.992602626594,-51.6253569696222));
#345=CARTESIAN_POINT('Ctrl Pts',(48.,110.992602626581,-51.6253569696222));
#346=CARTESIAN_POINT('Ctrl Pts',(29.0147947468379,51.,-61.1514009588018));
#347=CARTESIAN_POINT('Ctrl Pts',(29.0147947468338,69.9852052531662,-61.1514009588018));
#348=CARTESIAN_POINT('Ctrl Pts',(48.,69.9852052531621,-61.1514009588018));
#349=CARTESIAN_POINT('Ctrl Pts',(47.5727351789027,51.,-23.3631091166821));
#350=CARTESIAN_POINT('Ctrl Pts',(47.5727351789026,51.4272648210974,-23.3631091166821));
#351=CARTESIAN_POINT('Ctrl Pts',(48.,51.4272648210973,-23.3631091166821));
#352=CARTESIAN_POINT('Origin',(0.,51.,0.));
#353=CARTESIAN_POINT('Origin',(48.,99.,0.));
#354=CARTESIAN_POINT('Origin',(0.,0.,0.));
#355=CARTESIAN_POINT('',(53.,0.5,6.49062803548097E-15));
#356=CARTESIAN_POINT('Origin',(0.,0.5,0.));
#357=CARTESIAN_POINT('Origin',(98.5,99.,0.));
#358=CARTESIAN_POINT('',(98.5,54.,5.51091059616309E-15));
#359=CARTESIAN_POINT('Origin',(98.5,99.,0.));
#360=CARTESIAN_POINT('',(99.,53.5,-5.57214293612046E-15));
#361=CARTESIAN_POINT('Origin',(99.,99.,0.));
#362=CARTESIAN_POINT('Origin',(99.,99.,0.));
#363=CARTESIAN_POINT('',(99.,46.5,6.4293956955236E-15));
#364=CARTESIAN_POINT('Origin',(99.,99.,0.));
#365=CARTESIAN_POINT('Origin',(99.,99.,0.));
#366=CARTESIAN_POINT('',(48.,54.,5.51091059616309E-15));
#367=CARTESIAN_POINT('Origin',(48.,99.,0.));
#368=CARTESIAN_POINT('Origin',(98.5,99.,0.));
#369=CARTESIAN_POINT('',(98.5,46.,-6.49062803548097E-15));
#370=CARTESIAN_POINT('Origin',(98.5,99.,0.));
#371=CARTESIAN_POINT('Origin',(48.,99.,0.));
#372=CARTESIAN_POINT('Origin',(0.,0.5,0.));
#373=CARTESIAN_POINT('',(45.,0.5,-5.51091059616309E-15));
#374=CARTESIAN_POINT('Origin',(0.,0.5,0.));
#375=CARTESIAN_POINT('',(45.5,0.,5.57214293612046E-15));
#376=CARTESIAN_POINT('Origin',(0.,0.,0.));
#377=CARTESIAN_POINT('Origin',(-5.40885669623414E-16,0.,0.));
#378=CARTESIAN_POINT('',(52.5,0.,-6.4293956955236E-15));
#379=CARTESIAN_POINT('Origin',(0.,0.,0.));
#380=CARTESIAN_POINT('Origin',(0.,0.,0.));
#381=CARTESIAN_POINT('',(45.,51.,5.51091059616309E-15));
#382=CARTESIAN_POINT('Origin',(0.,51.,0.));
#383=CARTESIAN_POINT('Origin',(0.,0.5,0.));
#384=CARTESIAN_POINT('Origin',(48.,51.,0.));
#385=CARTESIAN_POINT('',(48.,143.,0.));
#386=CARTESIAN_POINT('Origin',(48.,99.,0.));
#387=CARTESIAN_POINT('',(-44.,51.,0.));
#388=CARTESIAN_POINT('Origin',(0.,51.,0.));
#389=CARTESIAN_POINT('Origin',(48.,99.,0.));
#390=CARTESIAN_POINT('Origin',(-1.77506243071748E-15,51.,0.));
#391=UNCERTAINTY_MEASURE_WITH_UNIT(LENGTH_MEASURE(0.01),#395,
'DISTANCE_ACCURACY_VALUE',
'Maximum model space distance between geometric entities at asserted c
onnectivities');
#392=UNCERTAINTY_MEASURE_WITH_UNIT(LENGTH_MEASURE(1.E-6),#395,
'DISTANCE_ACCURACY_VALUE',
'Maximum model space distance between geometric entities at asserted c
onnectivities');
#393=(
GEOMETRIC_REPRESENTATION_CONTEXT(3)
GLOBAL_UNCERTAINTY_ASSIGNED_CONTEXT((#391))
GLOBAL_UNIT_ASSIGNED_CONTEXT((#395,#398,#396))
REPRESENTATION_CONTEXT('','3D')
);
#394=(
GEOMETRIC_REPRESENTATION_CONTEXT(3)
GLOBAL_UNCERTAINTY_ASSIGNED_CONTEXT((#392))
GLOBAL_UNIT_ASSIGNED_CONTEXT((#395,#398,#396))
REPRESENTATION_CONTEXT('','3D')
);
#395=(
LENGTH_UNIT()
NAMED_UNIT(*)
SI_UNIT(.MILLI.,.METRE.)
);
#396=(
NAMED_UNIT(*)
SI_UNIT($,.STERADIAN.)
SOLID_ANGLE_UNIT()
);
#397=DIMENSIONAL_EXPONENTS(0.,0.,0.,0.,0.,0.,0.);
#398=(
CONVERSION_BASED_UNIT('degree',#400)
NAMED_UNIT(#397)
PLANE_ANGLE_UNIT()
);
#399=(
NAMED_UNIT(*)
PLANE_ANGLE_UNIT()
SI_UNIT($,.RADIAN.)
);
#400=PLANE_ANGLE_MEASURE_WITH_UNIT(PLANE_ANGLE_MEASURE(0.01745329252),#399);
#401=SHAPE_DEFINITION_REPRESENTATION(#402,#403);
#402=PRODUCT_DEFINITION_SHAPE('',$,#405);
#403=SHAPE_REPRESENTATION('',(#190),#393);
#404=PRODUCT_DEFINITION_CONTEXT('part definition',#409,'design');
#405=PRODUCT_DEFINITION('EL500900','EL500900',#406,#404);
#406=PRODUCT_DEFINITION_FORMATION('',$,#411);
#407=PRODUCT_RELATED_PRODUCT_CATEGORY('EL500900','EL500900',(#411));
#408=APPLICATION_PROTOCOL_DEFINITION('international standard',
'automotive_design',2009,#409);
#409=APPLICATION_CONTEXT(
'Core Data for Automotive Mechanical Design Process');
#410=PRODUCT_CONTEXT('part definition',#409,'mechanical');
#411=PRODUCT('EL500900','EL500900',$,(#410));
#412=PRESENTATION_STYLE_ASSIGNMENT((#413));
#413=SURFACE_STYLE_USAGE(.BOTH.,#414);
#414=SURFACE_SIDE_STYLE('',(#415));
#415=SURFACE_STYLE_FILL_AREA(#416);
#416=FILL_AREA_STYLE('',(#417));
#417=FILL_AREA_STYLE_COLOUR('',#418);
#418=COLOUR_RGB('',0.8,0.8,0.8);
ENDSEC;
END-ISO-10303-21;
