ISO-10303-21;
HEADER;
/****************************************************************
 * Generated by software with PDE/Lib inside                    *
 * PDElib Version v51a, created Mon 03/22/2010                  *
 * International Technegroup Inc. (www.iti-oh.com)              *
 ****************************************************************/
FILE_DESCRIPTION((''),'2;1');
FILE_NAME('R:\\Neue Zeichnungdateien ab Januar 2010\\D\S\|bel und Anker\\Step\\106533.stp','2010-09-06T11:44:18',('DMK009'),(''),'Autodesk Inventor 2010','Autodesk Inventor 2010','');
FILE_SCHEMA(('AUTOMOTIVE_DESIGN { 1 0 10303 214 1 1 1 1 }'));
ENDSEC;
DATA;
#5=APPLICATION_CONTEXT('automotive design');
#6=APPLICATION_PROTOCOL_DEFINITION('International Standard','automotive_design',2001,#5);
#7=PRODUCT_CONTEXT('',#5,'mechanical');
#8=PRODUCT('Betonschrauben mit Ansatzschraube','Betonschrauben mit Ansatzschraube',$,(#7));
#9=PRODUCT_RELATED_PRODUCT_CATEGORY('part',$,(#8));
#10=PRODUCT_DEFINITION_FORMATION('',$,#8);
#11=PRODUCT_DEFINITION_CONTEXT('part definition',#5,'design');
#12=PRODUCT_DEFINITION('',$,#10,#11);
#18=(NAMED_UNIT(*)PLANE_ANGLE_UNIT()SI_UNIT($,.RADIAN.));
#19=DIMENSIONAL_EXPONENTS(0.0,0.0,0.0,0.0,0.0,0.0,0.0);
#20=PLANE_ANGLE_MEASURE_WITH_UNIT(PLANE_ANGLE_MEASURE(0.017453292500000),#18);
#24=(CONVERSION_BASED_UNIT('DEGREE',#20)NAMED_UNIT(#19)PLANE_ANGLE_UNIT());
#28=(NAMED_UNIT(*)SI_UNIT($,.STERADIAN.)SOLID_ANGLE_UNIT());
#32=(LENGTH_UNIT()NAMED_UNIT(*)SI_UNIT(.MILLI.,.METRE.));
#34=UNCERTAINTY_MEASURE_WITH_UNIT(LENGTH_MEASURE(0.010000000000000),#32,'DISTANCE_ACCURACY_VALUE','');
#36=(GEOMETRIC_REPRESENTATION_CONTEXT(3)GLOBAL_UNCERTAINTY_ASSIGNED_CONTEXT((#34))GLOBAL_UNIT_ASSIGNED_CONTEXT((#24,#28,#32))REPRESENTATION_CONTEXT('None','None'));
#37=AXIS2_PLACEMENT_3D('',#38,#39,#40);
#38=CARTESIAN_POINT('',(0.0,0.0,0.0));
#39=DIRECTION('',(0.0,0.0,1.0));
#40=DIRECTION('',(1.0,0.0,0.0));
#41=SHAPE_REPRESENTATION('',(#37),#36);
#42=PRODUCT_DEFINITION_SHAPE('','',#12);
#43=SHAPE_DEFINITION_REPRESENTATION(#42,#41);
#49=(NAMED_UNIT(*)PLANE_ANGLE_UNIT()SI_UNIT($,.RADIAN.));
#50=DIMENSIONAL_EXPONENTS(0.0,0.0,0.0,0.0,0.0,0.0,0.0);
#51=PLANE_ANGLE_MEASURE_WITH_UNIT(PLANE_ANGLE_MEASURE(0.017453292500000),#49);
#55=(CONVERSION_BASED_UNIT('DEGREE',#51)NAMED_UNIT(#50)PLANE_ANGLE_UNIT());
#59=(NAMED_UNIT(*)SI_UNIT($,.STERADIAN.)SOLID_ANGLE_UNIT());
#63=(LENGTH_UNIT()NAMED_UNIT(*)SI_UNIT(.MILLI.,.METRE.));
#65=UNCERTAINTY_MEASURE_WITH_UNIT(LENGTH_MEASURE(0.000001000000000),#63,'DISTANCE_ACCURACY_VALUE','');
#67=(GEOMETRIC_REPRESENTATION_CONTEXT(3)GLOBAL_UNCERTAINTY_ASSIGNED_CONTEXT((#65))GLOBAL_UNIT_ASSIGNED_CONTEXT((#55,#59,#63))REPRESENTATION_CONTEXT('','3D'));
#68=CARTESIAN_POINT('',(0.0,0.0,17.750000000000000));
#69=DIRECTION('',(0.0,0.0,-1.0));
#70=DIRECTION('',(-1.0,0.0,0.0));
#71=AXIS2_PLACEMENT_3D('',#68,#69,#70);
#72=CONICAL_SURFACE('',#71,3.750000000000000,44.999999999999837);
#73=CARTESIAN_POINT('',(3.500000000000000,-4.286122E-016,18.000000000000004));
#74=VERTEX_POINT('',#73);
#75=CARTESIAN_POINT('',(0.0,0.0,18.000000000000004));
#76=DIRECTION('',(0.0,0.0,-1.0));
#77=DIRECTION('',(-1.0,0.0,0.0));
#78=AXIS2_PLACEMENT_3D('',#75,#76,#77);
#79=CIRCLE('',#78,3.500000000000000);
#80=EDGE_CURVE('',#74,#74,#79,.T.);
#81=ORIENTED_EDGE('',*,*,#80,.T.);
#82=EDGE_LOOP('',(#81));
#83=FACE_OUTER_BOUND('',#82,.T.);
#84=CARTESIAN_POINT('',(4.0,4.898425E-016,17.500000000000000));
#85=VERTEX_POINT('',#84);
#86=CARTESIAN_POINT('',(0.0,0.0,17.500000000000000));
#87=DIRECTION('',(0.0,0.0,1.0));
#88=DIRECTION('',(-1.0,0.0,0.0));
#89=AXIS2_PLACEMENT_3D('',#86,#87,#88);
#90=CIRCLE('',#89,4.0);
#91=EDGE_CURVE('',#85,#85,#90,.T.);
#92=ORIENTED_EDGE('',*,*,#91,.T.);
#93=EDGE_LOOP('',(#92));
#94=FACE_BOUND('',#93,.T.);
#95=ADVANCED_FACE('',(#83,#94),#72,.T.);
#96=CARTESIAN_POINT('',(0.0,0.0,4.0));
#97=DIRECTION('',(0.0,0.0,1.0));
#98=DIRECTION('',(-1.0,0.0,0.0));
#99=AXIS2_PLACEMENT_3D('',#96,#97,#98);
#100=CYLINDRICAL_SURFACE('',#99,4.0);
#101=CARTESIAN_POINT('',(4.0,4.898587E-016,4.0));
#102=VERTEX_POINT('',#101);
#103=CARTESIAN_POINT('',(0.0,0.0,4.0));
#104=DIRECTION('',(0.0,0.0,-1.0));
#105=DIRECTION('',(-1.0,0.0,0.0));
#106=AXIS2_PLACEMENT_3D('',#103,#104,#105);
#107=CIRCLE('',#106,4.0);
#108=EDGE_CURVE('',#102,#102,#107,.T.);
#109=ORIENTED_EDGE('',*,*,#108,.F.);
#110=EDGE_LOOP('',(#109));
#111=FACE_OUTER_BOUND('',#110,.T.);
#112=ORIENTED_EDGE('',*,*,#91,.F.);
#113=EDGE_LOOP('',(#112));
#114=FACE_BOUND('',#113,.T.);
#115=ADVANCED_FACE('',(#111,#114),#100,.T.);
#116=CARTESIAN_POINT('',(0.0,0.0,18.000000000000004));
#117=DIRECTION('',(0.0,0.0,-1.0));
#118=DIRECTION('',(-1.0,0.0,0.0));
#119=AXIS2_PLACEMENT_3D('',#116,#117,#118);
#120=PLANE('',#119);
#121=ORIENTED_EDGE('',*,*,#80,.F.);
#122=EDGE_LOOP('',(#121));
#123=FACE_OUTER_BOUND('',#122,.T.);
#124=ADVANCED_FACE('',(#123),#120,.F.);
#125=CARTESIAN_POINT('',(0.0,0.0,-84.500000000000000));
#126=DIRECTION('',(0.0,0.0,1.0));
#127=DIRECTION('',(1.0,0.0,0.0));
#128=AXIS2_PLACEMENT_3D('',#125,#126,#127);
#129=CONICAL_SURFACE('',#128,3.150000000000000,45.000000000000099);
#130=CARTESIAN_POINT('',(-2.650000000000000,-3.245207E-016,-85.0));
#131=VERTEX_POINT('',#130);
#132=CARTESIAN_POINT('',(0.0,0.0,-85.0));
#133=DIRECTION('',(0.0,0.0,1.0));
#134=DIRECTION('',(1.0,0.0,0.0));
#135=AXIS2_PLACEMENT_3D('',#132,#133,#134);
#136=CIRCLE('',#135,2.650000000000000);
#137=EDGE_CURVE('',#131,#131,#136,.T.);
#138=ORIENTED_EDGE('',*,*,#137,.T.);
#139=EDGE_LOOP('',(#138));
#140=FACE_OUTER_BOUND('',#139,.T.);
#141=CARTESIAN_POINT('',(-3.650000000000000,4.469813E-016,-84.0));
#142=VERTEX_POINT('',#141);
#143=CARTESIAN_POINT('',(0.0,0.0,-84.0));
#144=DIRECTION('',(0.0,0.0,-1.0));
#145=DIRECTION('',(1.0,0.0,0.0));
#146=AXIS2_PLACEMENT_3D('',#143,#144,#145);
#147=CIRCLE('',#146,3.650000000000000);
#148=EDGE_CURVE('',#142,#142,#147,.T.);
#149=ORIENTED_EDGE('',*,*,#148,.T.);
#150=EDGE_LOOP('',(#149));
#151=FACE_BOUND('',#150,.T.);
#152=ADVANCED_FACE('',(#140,#151),#129,.T.);
#153=CARTESIAN_POINT('',(0.0,0.0,0.0));
#154=DIRECTION('',(0.0,0.0,-1.0));
#155=DIRECTION('',(1.0,0.0,0.0));
#156=AXIS2_PLACEMENT_3D('',#153,#154,#155);
#157=CYLINDRICAL_SURFACE('',#156,3.650000000000000);
#158=CARTESIAN_POINT('',(-3.650000000000000,4.469961E-016,0.0));
#159=VERTEX_POINT('',#158);
#160=CARTESIAN_POINT('',(0.0,0.0,0.0));
#161=DIRECTION('',(0.0,0.0,1.0));
#162=DIRECTION('',(1.0,0.0,0.0));
#163=AXIS2_PLACEMENT_3D('',#160,#161,#162);
#164=CIRCLE('',#163,3.650000000000000);
#165=EDGE_CURVE('',#159,#159,#164,.T.);
#166=ORIENTED_EDGE('',*,*,#165,.F.);
#167=EDGE_LOOP('',(#166));
#168=FACE_OUTER_BOUND('',#167,.T.);
#169=ORIENTED_EDGE('',*,*,#148,.F.);
#170=EDGE_LOOP('',(#169));
#171=FACE_BOUND('',#170,.T.);
#172=ADVANCED_FACE('',(#168,#171),#157,.T.);
#173=CARTESIAN_POINT('',(0.0,0.0,-85.0));
#174=DIRECTION('',(0.0,0.0,1.0));
#175=DIRECTION('',(1.0,0.0,0.0));
#176=AXIS2_PLACEMENT_3D('',#173,#174,#175);
#177=PLANE('',#176);
#178=ORIENTED_EDGE('',*,*,#137,.F.);
#179=EDGE_LOOP('',(#178));
#180=FACE_OUTER_BOUND('',#179,.T.);
#181=ADVANCED_FACE('',(#180),#177,.F.);
#182=CARTESIAN_POINT('',(5.773502691896257,-4.579670E-015,0.0));
#183=DIRECTION('',(0.866025403784438,-0.500000000000001,0.0));
#184=DIRECTION('',(0.0,0.0,-1.0));
#185=AXIS2_PLACEMENT_3D('',#182,#183,#184);
#186=PLANE('',#185);
#187=CARTESIAN_POINT('',(5.773502691896257,-4.579670E-015,4.0));
#188=VERTEX_POINT('',#187);
#189=CARTESIAN_POINT('',(2.886751345948126,-5.000000000000002,4.0));
#190=VERTEX_POINT('',#189);
#191=CARTESIAN_POINT('',(5.773502691896257,-4.579670E-015,4.0));
#192=DIRECTION('',(-0.500000000000001,-0.866025403784438,0.0));
#193=VECTOR('',#192,5.773502691896257);
#194=LINE('',#191,#193);
#195=EDGE_CURVE('',#188,#190,#194,.T.);
#196=ORIENTED_EDGE('',*,*,#195,.T.);
#197=CARTESIAN_POINT('',(2.886751345948126,-5.000000000000002,0.0));
#198=VERTEX_POINT('',#197);
#199=CARTESIAN_POINT('',(2.886751345948126,-5.000000000000002,0.0));
#200=DIRECTION('',(0.0,0.0,1.0));
#201=VECTOR('',#200,4.0);
#202=LINE('',#199,#201);
#203=EDGE_CURVE('',#198,#190,#202,.T.);
#204=ORIENTED_EDGE('',*,*,#203,.F.);
#205=CARTESIAN_POINT('',(5.773502691896257,-4.579670E-015,0.0));
#206=VERTEX_POINT('',#205);
#207=CARTESIAN_POINT('',(5.773502691896257,-4.579670E-015,0.0));
#208=DIRECTION('',(-0.500000000000001,-0.866025403784438,0.0));
#209=VECTOR('',#208,5.773502691896257);
#210=LINE('',#207,#209);
#211=EDGE_CURVE('',#206,#198,#210,.T.);
#212=ORIENTED_EDGE('',*,*,#211,.F.);
#213=CARTESIAN_POINT('',(5.773502691896257,-4.579670E-015,0.0));
#214=DIRECTION('',(0.0,0.0,1.0));
#215=VECTOR('',#214,4.0);
#216=LINE('',#213,#215);
#217=EDGE_CURVE('',#206,#188,#216,.T.);
#218=ORIENTED_EDGE('',*,*,#217,.T.);
#219=EDGE_LOOP('',(#196,#204,#212,#218));
#220=FACE_OUTER_BOUND('',#219,.T.);
#221=ADVANCED_FACE('',(#220),#186,.T.);
#222=CARTESIAN_POINT('',(2.886751345948126,-5.000000000000002,0.0));
#223=DIRECTION('',(0.0,-1.0,0.0));
#224=DIRECTION('',(0.0,0.0,-1.0));
#225=AXIS2_PLACEMENT_3D('',#222,#223,#224);
#226=PLANE('',#225);
#227=CARTESIAN_POINT('',(-2.886751345948131,-4.999999999999998,4.0));
#228=VERTEX_POINT('',#227);
#229=CARTESIAN_POINT('',(2.886751345948126,-5.000000000000002,4.0));
#230=DIRECTION('',(-1.0,0.0,0.0));
#231=VECTOR('',#230,5.773502691896256);
#232=LINE('',#229,#231);
#233=EDGE_CURVE('',#190,#228,#232,.T.);
#234=ORIENTED_EDGE('',*,*,#233,.T.);
#235=CARTESIAN_POINT('',(-2.886751345948131,-4.999999999999998,0.0));
#236=VERTEX_POINT('',#235);
#237=CARTESIAN_POINT('',(-2.886751345948131,-4.999999999999998,0.0));
#238=DIRECTION('',(0.0,0.0,1.0));
#239=VECTOR('',#238,4.0);
#240=LINE('',#237,#239);
#241=EDGE_CURVE('',#236,#228,#240,.T.);
#242=ORIENTED_EDGE('',*,*,#241,.F.);
#243=CARTESIAN_POINT('',(2.886751345948126,-5.000000000000002,0.0));
#244=DIRECTION('',(-1.0,0.0,0.0));
#245=VECTOR('',#244,5.773502691896256);
#246=LINE('',#243,#245);
#247=EDGE_CURVE('',#198,#236,#246,.T.);
#248=ORIENTED_EDGE('',*,*,#247,.F.);
#249=ORIENTED_EDGE('',*,*,#203,.T.);
#250=EDGE_LOOP('',(#234,#242,#248,#249));
#251=FACE_OUTER_BOUND('',#250,.T.);
#252=ADVANCED_FACE('',(#251),#226,.T.);
#253=CARTESIAN_POINT('',(-2.886751345948131,-4.999999999999998,0.0));
#254=DIRECTION('',(-0.866025403784439,-0.500000000000000,0.0));
#255=DIRECTION('',(0.0,0.0,1.0));
#256=AXIS2_PLACEMENT_3D('',#253,#254,#255);
#257=PLANE('',#256);
#258=CARTESIAN_POINT('',(-5.773502691896256,1.804112E-015,4.0));
#259=VERTEX_POINT('',#258);
#260=CARTESIAN_POINT('',(-2.886751345948131,-4.999999999999998,4.0));
#261=DIRECTION('',(-0.499999999999999,0.866025403784439,0.0));
#262=VECTOR('',#261,5.773502691896257);
#263=LINE('',#260,#262);
#264=EDGE_CURVE('',#228,#259,#263,.T.);
#265=ORIENTED_EDGE('',*,*,#264,.T.);
#266=CARTESIAN_POINT('',(-5.773502691896256,1.804112E-015,0.0));
#267=VERTEX_POINT('',#266);
#268=CARTESIAN_POINT('',(-5.773502691896256,1.804112E-015,0.0));
#269=DIRECTION('',(0.0,0.0,1.0));
#270=VECTOR('',#269,4.0);
#271=LINE('',#268,#270);
#272=EDGE_CURVE('',#267,#259,#271,.T.);
#273=ORIENTED_EDGE('',*,*,#272,.F.);
#274=CARTESIAN_POINT('',(-2.886751345948131,-4.999999999999998,0.0));
#275=DIRECTION('',(-0.499999999999999,0.866025403784439,0.0));
#276=VECTOR('',#275,5.773502691896257);
#277=LINE('',#274,#276);
#278=EDGE_CURVE('',#236,#267,#277,.T.);
#279=ORIENTED_EDGE('',*,*,#278,.F.);
#280=ORIENTED_EDGE('',*,*,#241,.T.);
#281=EDGE_LOOP('',(#265,#273,#279,#280));
#282=FACE_OUTER_BOUND('',#281,.T.);
#283=ADVANCED_FACE('',(#282),#257,.T.);
#284=CARTESIAN_POINT('',(-5.773502691896256,1.804112E-015,0.0));
#285=DIRECTION('',(-0.866025403784439,0.500000000000000,0.0));
#286=DIRECTION('',(0.0,0.0,1.0));
#287=AXIS2_PLACEMENT_3D('',#284,#285,#286);
#288=PLANE('',#287);
#289=CARTESIAN_POINT('',(-2.886751345948127,5.0,4.0));
#290=VERTEX_POINT('',#289);
#291=CARTESIAN_POINT('',(-5.773502691896256,1.804112E-015,4.0));
#292=DIRECTION('',(0.500000000000000,0.866025403784438,0.0));
#293=VECTOR('',#292,5.773502691896256);
#294=LINE('',#291,#293);
#295=EDGE_CURVE('',#259,#290,#294,.T.);
#296=ORIENTED_EDGE('',*,*,#295,.T.);
#297=CARTESIAN_POINT('',(-2.886751345948127,5.0,0.0));
#298=VERTEX_POINT('',#297);
#299=CARTESIAN_POINT('',(-2.886751345948127,5.0,0.0));
#300=DIRECTION('',(0.0,0.0,1.0));
#301=VECTOR('',#300,4.0);
#302=LINE('',#299,#301);
#303=EDGE_CURVE('',#298,#290,#302,.T.);
#304=ORIENTED_EDGE('',*,*,#303,.F.);
#305=CARTESIAN_POINT('',(-5.773502691896256,1.804112E-015,0.0));
#306=DIRECTION('',(0.500000000000000,0.866025403784438,0.0));
#307=VECTOR('',#306,5.773502691896256);
#308=LINE('',#305,#307);
#309=EDGE_CURVE('',#267,#298,#308,.T.);
#310=ORIENTED_EDGE('',*,*,#309,.F.);
#311=ORIENTED_EDGE('',*,*,#272,.T.);
#312=EDGE_LOOP('',(#296,#304,#310,#311));
#313=FACE_OUTER_BOUND('',#312,.T.);
#314=ADVANCED_FACE('',(#313),#288,.T.);
#315=CARTESIAN_POINT('',(-2.886751345948127,5.0,0.0));
#316=DIRECTION('',(0.0,1.0,0.0));
#317=DIRECTION('',(0.0,0.0,1.0));
#318=AXIS2_PLACEMENT_3D('',#315,#316,#317);
#319=PLANE('',#318);
#320=CARTESIAN_POINT('',(2.886751345948127,5.0,4.0));
#321=VERTEX_POINT('',#320);
#322=CARTESIAN_POINT('',(-2.886751345948127,5.0,4.0));
#323=DIRECTION('',(1.0,0.0,0.0));
#324=VECTOR('',#323,5.773502691896255);
#325=LINE('',#322,#324);
#326=EDGE_CURVE('',#290,#321,#325,.T.);
#327=ORIENTED_EDGE('',*,*,#326,.T.);
#328=CARTESIAN_POINT('',(2.886751345948127,5.0,0.0));
#329=VERTEX_POINT('',#328);
#330=CARTESIAN_POINT('',(2.886751345948127,5.0,0.0));
#331=DIRECTION('',(0.0,0.0,1.0));
#332=VECTOR('',#331,4.0);
#333=LINE('',#330,#332);
#334=EDGE_CURVE('',#329,#321,#333,.T.);
#335=ORIENTED_EDGE('',*,*,#334,.F.);
#336=CARTESIAN_POINT('',(-2.886751345948127,5.0,0.0));
#337=DIRECTION('',(1.0,0.0,0.0));
#338=VECTOR('',#337,5.773502691896255);
#339=LINE('',#336,#338);
#340=EDGE_CURVE('',#298,#329,#339,.T.);
#341=ORIENTED_EDGE('',*,*,#340,.F.);
#342=ORIENTED_EDGE('',*,*,#303,.T.);
#343=EDGE_LOOP('',(#327,#335,#341,#342));
#344=FACE_OUTER_BOUND('',#343,.T.);
#345=ADVANCED_FACE('',(#344),#319,.T.);
#346=CARTESIAN_POINT('',(2.886751345948127,5.0,0.0));
#347=DIRECTION('',(0.866025403784439,0.500000000000000,0.0));
#348=DIRECTION('',(0.0,0.0,-1.0));
#349=AXIS2_PLACEMENT_3D('',#346,#347,#348);
#350=PLANE('',#349);
#351=CARTESIAN_POINT('',(2.886751345948127,5.0,4.0));
#352=DIRECTION('',(0.500000000000000,-0.866025403784439,0.0));
#353=VECTOR('',#352,5.773502691896262);
#354=LINE('',#351,#353);
#355=EDGE_CURVE('',#321,#188,#354,.T.);
#356=ORIENTED_EDGE('',*,*,#355,.T.);
#357=ORIENTED_EDGE('',*,*,#217,.F.);
#358=CARTESIAN_POINT('',(2.886751345948127,5.0,0.0));
#359=DIRECTION('',(0.500000000000000,-0.866025403784439,0.0));
#360=VECTOR('',#359,5.773502691896262);
#361=LINE('',#358,#360);
#362=EDGE_CURVE('',#329,#206,#361,.T.);
#363=ORIENTED_EDGE('',*,*,#362,.F.);
#364=ORIENTED_EDGE('',*,*,#334,.T.);
#365=EDGE_LOOP('',(#356,#357,#363,#364));
#366=FACE_OUTER_BOUND('',#365,.T.);
#367=ADVANCED_FACE('',(#366),#350,.T.);
#368=CARTESIAN_POINT('',(0.0,-4.163336E-016,4.0));
#369=DIRECTION('',(0.0,0.0,1.0));
#370=DIRECTION('',(1.0,0.0,0.0));
#371=AXIS2_PLACEMENT_3D('',#368,#369,#370);
#372=PLANE('',#371);
#373=ORIENTED_EDGE('',*,*,#195,.F.);
#374=ORIENTED_EDGE('',*,*,#355,.F.);
#375=ORIENTED_EDGE('',*,*,#326,.F.);
#376=ORIENTED_EDGE('',*,*,#295,.F.);
#377=ORIENTED_EDGE('',*,*,#264,.F.);
#378=ORIENTED_EDGE('',*,*,#233,.F.);
#379=EDGE_LOOP('',(#373,#374,#375,#376,#377,#378));
#380=FACE_OUTER_BOUND('',#379,.T.);
#381=ORIENTED_EDGE('',*,*,#108,.T.);
#382=EDGE_LOOP('',(#381));
#383=FACE_BOUND('',#382,.T.);
#384=ADVANCED_FACE('',(#380,#383),#372,.T.);
#385=CARTESIAN_POINT('',(-1.387779E-016,-4.163336E-016,0.0));
#386=DIRECTION('',(0.0,0.0,1.0));
#387=DIRECTION('',(1.0,0.0,0.0));
#388=AXIS2_PLACEMENT_3D('',#385,#386,#387);
#389=PLANE('',#388);
#390=ORIENTED_EDGE('',*,*,#362,.T.);
#391=ORIENTED_EDGE('',*,*,#211,.T.);
#392=ORIENTED_EDGE('',*,*,#247,.T.);
#393=ORIENTED_EDGE('',*,*,#278,.T.);
#394=ORIENTED_EDGE('',*,*,#309,.T.);
#395=ORIENTED_EDGE('',*,*,#340,.T.);
#396=EDGE_LOOP('',(#390,#391,#392,#393,#394,#395));
#397=FACE_OUTER_BOUND('',#396,.T.);
#398=ORIENTED_EDGE('',*,*,#165,.T.);
#399=EDGE_LOOP('',(#398));
#400=FACE_BOUND('',#399,.T.);
#401=ADVANCED_FACE('',(#397,#400),#389,.F.);
#402=CLOSED_SHELL('',(#95,#115,#124,#152,#172,#181,#221,#252,#283,#314,#345,#367,#384,#401));
#403=MANIFOLD_SOLID_BREP('Volumenk\S\vrper1',#402);
#404=COLOUR_RGB('Standard',0.752941012382507,0.752941012382507,0.752941012382507);
#405=FILL_AREA_STYLE_COLOUR('Standard',#404);
#406=FILL_AREA_STYLE('Standard',(#405));
#407=SURFACE_STYLE_FILL_AREA(#406);
#408=SURFACE_SIDE_STYLE('Standard',(#407));
#409=SURFACE_STYLE_USAGE(.BOTH.,#408);
#410=PRESENTATION_STYLE_ASSIGNMENT((#409));
#411=STYLED_ITEM('',(#410),#403);
#412=MECHANICAL_DESIGN_GEOMETRIC_PRESENTATION_REPRESENTATION('',(#411),#36);
#413=ADVANCED_BREP_SHAPE_REPRESENTATION('ABSR',(#403),#36);
#414=SHAPE_REPRESENTATION_RELATIONSHIP('SRR','None',#413,#41);
ENDSEC;
END-ISO-10303-21;
