ISO-10303-21;
HEADER;
FILE_DESCRIPTION( ( '' ), '1' );
FILE_NAME( '//se01002/users/anro/AGRU_25705045007_PE_100_schwarz_Rohr__5m_450X61_5__SDR7_4__ISO_S-3_2_05.stp', '2017-12-11T09:31:18', ( '' ), ( '' ), ' ', ' ', ' ' );
FILE_SCHEMA( ( 'automotive_design' ) );
ENDSEC;
DATA;
#1 = MECHANICAL_DESIGN_GEOMETRIC_PRESENTATION_REPRESENTATION( ' ', ( #10, #11, #12, #13, #14, #15, #16, #17, #18, #19, #20, #21, #22, #23, #24, #25, #26, #27, #28, #29, #30, #31, #32, #33, #34, #35, #36 ), #6 );
#2 = PRODUCT_DEFINITION_CONTEXT( '', #37, 'design' );
#3 = APPLICATION_PROTOCOL_DEFINITION( 'INTERNATIONAL STANDARD', 'automotive_design', 1994, #37 );
#4 = PRODUCT_CATEGORY_RELATIONSHIP( 'NONE', 'NONE', #38, #39 );
#5 = SHAPE_DEFINITION_REPRESENTATION( #40, #41 );
#6 =  ( GEOMETRIC_REPRESENTATION_CONTEXT( 3 )GLOBAL_UNCERTAINTY_ASSIGNED_CONTEXT( ( #44 ) )GLOBAL_UNIT_ASSIGNED_CONTEXT( ( #46, #47, #48 ) )REPRESENTATION_CONTEXT( 'NONE', 'WORKSPACE' ) );
#10 = STYLED_ITEM( '', ( #50 ), #51 );
#11 = STYLED_ITEM( '', ( #52 ), #53 );
#12 = STYLED_ITEM( '', ( #54 ), #55 );
#13 = STYLED_ITEM( '', ( #56 ), #57 );
#14 = STYLED_ITEM( '', ( #58 ), #59 );
#15 = STYLED_ITEM( '', ( #60 ), #61 );
#16 = STYLED_ITEM( '', ( #62 ), #63 );
#17 = STYLED_ITEM( '', ( #64 ), #65 );
#18 = STYLED_ITEM( '', ( #66 ), #67 );
#19 = STYLED_ITEM( '', ( #68 ), #69 );
#20 = STYLED_ITEM( '', ( #70 ), #71 );
#21 = STYLED_ITEM( '', ( #72 ), #73 );
#22 = STYLED_ITEM( '', ( #74 ), #75 );
#23 = STYLED_ITEM( '', ( #76 ), #77 );
#24 = STYLED_ITEM( '', ( #78 ), #79 );
#25 = STYLED_ITEM( '', ( #80 ), #81 );
#26 = STYLED_ITEM( '', ( #82 ), #83 );
#27 = STYLED_ITEM( '', ( #84 ), #85 );
#28 = STYLED_ITEM( '', ( #86 ), #87 );
#29 = STYLED_ITEM( '', ( #88 ), #89 );
#30 = STYLED_ITEM( '', ( #90 ), #91 );
#31 = STYLED_ITEM( '', ( #92 ), #93 );
#32 = STYLED_ITEM( '', ( #94 ), #95 );
#33 = STYLED_ITEM( '', ( #96 ), #97 );
#34 = STYLED_ITEM( '', ( #98 ), #99 );
#35 = STYLED_ITEM( '', ( #100 ), #101 );
#36 = STYLED_ITEM( '', ( #102 ), #103 );
#37 = APPLICATION_CONTEXT( ' ' );
#38 = PRODUCT_CATEGORY( 'part', 'NONE' );
#39 = PRODUCT_RELATED_PRODUCT_CATEGORY( 'detail', ' ', ( #104 ) );
#40 = PRODUCT_DEFINITION_SHAPE( 'NONE', 'NONE', #105 );
#41 = ADVANCED_BREP_SHAPE_REPRESENTATION( '1', ( #95, #106 ), #6 );
#44 = UNCERTAINTY_MEASURE_WITH_UNIT( LENGTH_MEASURE( 1.00000000000000E-006 ), #46, '', '' );
#46 =  ( CONVERSION_BASED_UNIT( 'MILLIMETRE', #109 )LENGTH_UNIT(  )NAMED_UNIT( #112 ) );
#47 =  ( NAMED_UNIT( #114 )PLANE_ANGLE_UNIT(  )SI_UNIT( $, .RADIAN. ) );
#48 =  ( NAMED_UNIT( #114 )SOLID_ANGLE_UNIT(  )SI_UNIT( $, .STERADIAN. ) );
#50 = PRESENTATION_STYLE_ASSIGNMENT( ( #120 ) );
#51 = EDGE_CURVE( '', #81, #67, #121, .T. );
#52 = PRESENTATION_STYLE_ASSIGNMENT( ( #122 ) );
#53 = VERTEX_POINT( '', #123 );
#54 = PRESENTATION_STYLE_ASSIGNMENT( ( #124 ) );
#55 = EDGE_CURVE( '', #67, #103, #125, .T. );
#56 = PRESENTATION_STYLE_ASSIGNMENT( ( #126 ) );
#57 = EDGE_CURVE( '', #97, #83, #127, .T. );
#58 = PRESENTATION_STYLE_ASSIGNMENT( ( #128 ) );
#59 = ADVANCED_FACE( '', ( #129, #130 ), #131, .F. );
#60 = PRESENTATION_STYLE_ASSIGNMENT( ( #132 ) );
#61 = ADVANCED_FACE( '', ( #133 ), #134, .T. );
#62 = PRESENTATION_STYLE_ASSIGNMENT( ( #135 ) );
#63 = EDGE_CURVE( '', #53, #97, #136, .T. );
#64 = PRESENTATION_STYLE_ASSIGNMENT( ( #137 ) );
#65 = ADVANCED_FACE( '', ( #138 ), #139, .T. );
#66 = PRESENTATION_STYLE_ASSIGNMENT( ( #140 ) );
#67 = VERTEX_POINT( '', #141 );
#68 = PRESENTATION_STYLE_ASSIGNMENT( ( #142 ) );
#69 = EDGE_CURVE( '', #103, #87, #143, .T. );
#70 = PRESENTATION_STYLE_ASSIGNMENT( ( #144 ) );
#71 = EDGE_CURVE( '', #87, #103, #145, .T. );
#72 = PRESENTATION_STYLE_ASSIGNMENT( ( #146 ) );
#73 = EDGE_CURVE( '', #83, #97, #147, .T. );
#74 = PRESENTATION_STYLE_ASSIGNMENT( ( #148 ) );
#75 = EDGE_CURVE( '', #53, #79, #149, .T. );
#76 = PRESENTATION_STYLE_ASSIGNMENT( ( #150 ) );
#77 = EDGE_CURVE( '', #83, #79, #151, .T. );
#78 = PRESENTATION_STYLE_ASSIGNMENT( ( #152 ) );
#79 = VERTEX_POINT( '', #153 );
#80 = PRESENTATION_STYLE_ASSIGNMENT( ( #154 ) );
#81 = VERTEX_POINT( '', #155 );
#82 = PRESENTATION_STYLE_ASSIGNMENT( ( #156 ) );
#83 = VERTEX_POINT( '', #157 );
#84 = PRESENTATION_STYLE_ASSIGNMENT( ( #158 ) );
#85 = ADVANCED_FACE( '', ( #159, #160 ), #161, .T. );
#86 = PRESENTATION_STYLE_ASSIGNMENT( ( #162 ) );
#87 = VERTEX_POINT( '', #163 );
#88 = PRESENTATION_STYLE_ASSIGNMENT( ( #164 ) );
#89 = EDGE_CURVE( '', #67, #81, #165, .T. );
#90 = PRESENTATION_STYLE_ASSIGNMENT( ( #166 ) );
#91 = EDGE_CURVE( '', #87, #81, #167, .T. );
#92 = PRESENTATION_STYLE_ASSIGNMENT( ( #168 ) );
#93 = ADVANCED_FACE( '', ( #169 ), #170, .F. );
#94 = PRESENTATION_STYLE_ASSIGNMENT( ( #171 ) );
#95 = MANIFOLD_SOLID_BREP( '1', #172 );
#96 = PRESENTATION_STYLE_ASSIGNMENT( ( #173 ) );
#97 = VERTEX_POINT( '', #174 );
#98 = PRESENTATION_STYLE_ASSIGNMENT( ( #175 ) );
#99 = ADVANCED_FACE( '', ( #176 ), #177, .F. );
#100 = PRESENTATION_STYLE_ASSIGNMENT( ( #178 ) );
#101 = EDGE_CURVE( '', #79, #53, #179, .T. );
#102 = PRESENTATION_STYLE_ASSIGNMENT( ( #180 ) );
#103 = VERTEX_POINT( '', #181 );
#104 = PRODUCT( '1', '1', 'PART-1-DESC', ( #182 ) );
#105 = PRODUCT_DEFINITION( 'NONE', 'NONE', #183, #2 );
#106 = AXIS2_PLACEMENT_3D( '', #184, #185, #186 );
#109 = LENGTH_MEASURE_WITH_UNIT( LENGTH_MEASURE( 1.00000000000000 ), #187 );
#112 = DIMENSIONAL_EXPONENTS( 1.00000000000000, 0.000000000000000, 0.000000000000000, 0.000000000000000, 0.000000000000000, 0.000000000000000, 0.000000000000000 );
#114 = DIMENSIONAL_EXPONENTS( 0.000000000000000, 0.000000000000000, 0.000000000000000, 0.000000000000000, 0.000000000000000, 0.000000000000000, 0.000000000000000 );
#120 = CURVE_STYLE( '', #188, POSITIVE_LENGTH_MEASURE( 1.00000000000000E-006 ), #189 );
#121 = CIRCLE( '', #190, 163.500000000000 );
#122 = POINT_STYLE( ' ', #191, POSITIVE_LENGTH_MEASURE( 1.00000000000000E-006 ), #192 );
#123 = CARTESIAN_POINT( '', ( 5000.00000000000, 2.75536429610035E-014, 225.000000000000 ) );
#124 = CURVE_STYLE( '', #193, POSITIVE_LENGTH_MEASURE( 1.00000000000000E-006 ), #194 );
#125 = LINE( '', #195, #196 );
#126 = CURVE_STYLE( '', #197, POSITIVE_LENGTH_MEASURE( 1.00000000000000E-006 ), #198 );
#127 = CIRCLE( '', #199, 225.000000000000 );
#128 = SURFACE_STYLE_USAGE( .BOTH., #200 );
#129 = FACE_OUTER_BOUND( '', #201, .T. );
#130 = FACE_BOUND( '', #202, .T. );
#131 = PLANE( '', #203 );
#132 = SURFACE_STYLE_USAGE( .BOTH., #204 );
#133 = FACE_OUTER_BOUND( '', #205, .T. );
#134 = CYLINDRICAL_SURFACE( '', #206, 225.000000000000 );
#135 = CURVE_STYLE( '', #207, POSITIVE_LENGTH_MEASURE( 1.00000000000000E-006 ), #208 );
#136 = LINE( '', #209, #210 );
#137 = SURFACE_STYLE_USAGE( .BOTH., #211 );
#138 = FACE_OUTER_BOUND( '', #212, .T. );
#139 = CYLINDRICAL_SURFACE( '', #213, 225.000000000000 );
#140 = POINT_STYLE( ' ', #214, POSITIVE_LENGTH_MEASURE( 1.00000000000000E-006 ), #215 );
#141 = CARTESIAN_POINT( '', ( 0.000000000000000, 0.000000000000000, -163.500000000000 ) );
#142 = CURVE_STYLE( '', #216, POSITIVE_LENGTH_MEASURE( 1.00000000000000E-006 ), #217 );
#143 = CIRCLE( '', #218, 163.500000000000 );
#144 = CURVE_STYLE( '', #219, POSITIVE_LENGTH_MEASURE( 1.00000000000000E-006 ), #220 );
#145 = CIRCLE( '', #221, 163.500000000000 );
#146 = CURVE_STYLE( '', #222, POSITIVE_LENGTH_MEASURE( 1.00000000000000E-006 ), #223 );
#147 = CIRCLE( '', #224, 225.000000000000 );
#148 = CURVE_STYLE( '', #225, POSITIVE_LENGTH_MEASURE( 1.00000000000000E-006 ), #226 );
#149 = CIRCLE( '', #227, 225.000000000000 );
#150 = CURVE_STYLE( '', #228, POSITIVE_LENGTH_MEASURE( 1.00000000000000E-006 ), #229 );
#151 = LINE( '', #230, #231 );
#152 = POINT_STYLE( ' ', #232, POSITIVE_LENGTH_MEASURE( 1.00000000000000E-006 ), #233 );
#153 = CARTESIAN_POINT( '', ( 5000.00000000000, 0.000000000000000, -225.000000000000 ) );
#154 = POINT_STYLE( ' ', #234, POSITIVE_LENGTH_MEASURE( 1.00000000000000E-006 ), #235 );
#155 = CARTESIAN_POINT( '', ( 0.000000000000000, 2.00223138849959E-014, 163.500000000000 ) );
#156 = POINT_STYLE( ' ', #236, POSITIVE_LENGTH_MEASURE( 1.00000000000000E-006 ), #237 );
#157 = CARTESIAN_POINT( '', ( 0.000000000000000, 0.000000000000000, -225.000000000000 ) );
#158 = SURFACE_STYLE_USAGE( .BOTH., #238 );
#159 = FACE_OUTER_BOUND( '', #239, .T. );
#160 = FACE_BOUND( '', #240, .T. );
#161 = PLANE( '', #241 );
#162 = POINT_STYLE( ' ', #242, POSITIVE_LENGTH_MEASURE( 1.00000000000000E-006 ), #243 );
#163 = CARTESIAN_POINT( '', ( 5000.00000000000, 2.00223138849959E-014, 163.500000000000 ) );
#164 = CURVE_STYLE( '', #244, POSITIVE_LENGTH_MEASURE( 1.00000000000000E-006 ), #245 );
#165 = CIRCLE( '', #246, 163.500000000000 );
#166 = CURVE_STYLE( '', #247, POSITIVE_LENGTH_MEASURE( 1.00000000000000E-006 ), #248 );
#167 = LINE( '', #249, #250 );
#168 = SURFACE_STYLE_USAGE( .BOTH., #251 );
#169 = FACE_OUTER_BOUND( '', #252, .T. );
#170 = CYLINDRICAL_SURFACE( '', #253, 163.500000000000 );
#171 = SURFACE_STYLE_USAGE( .BOTH., #254 );
#172 = CLOSED_SHELL( '', ( #65, #99, #93, #61, #85, #59 ) );
#173 = POINT_STYLE( ' ', #255, POSITIVE_LENGTH_MEASURE( 1.00000000000000E-006 ), #256 );
#174 = CARTESIAN_POINT( '', ( 0.000000000000000, 2.75536429610035E-014, 225.000000000000 ) );
#175 = SURFACE_STYLE_USAGE( .BOTH., #257 );
#176 = FACE_OUTER_BOUND( '', #258, .T. );
#177 = CYLINDRICAL_SURFACE( '', #259, 163.500000000000 );
#178 = CURVE_STYLE( '', #260, POSITIVE_LENGTH_MEASURE( 1.00000000000000E-006 ), #261 );
#179 = CIRCLE( '', #262, 225.000000000000 );
#180 = POINT_STYLE( ' ', #263, POSITIVE_LENGTH_MEASURE( 1.00000000000000E-006 ), #264 );
#181 = CARTESIAN_POINT( '', ( 5000.00000000000, 0.000000000000000, -163.500000000000 ) );
#182 = PRODUCT_CONTEXT( '', #37, 'mechanical' );
#183 = PRODUCT_DEFINITION_FORMATION_WITH_SPECIFIED_SOURCE( ' ', 'NONE', #104, .NOT_KNOWN. );
#184 = CARTESIAN_POINT( '', ( 0.000000000000000, 0.000000000000000, 0.000000000000000 ) );
#185 = DIRECTION( '', ( 0.000000000000000, 0.000000000000000, 1.00000000000000 ) );
#186 = DIRECTION( '', ( 1.00000000000000, 0.000000000000000, 0.000000000000000 ) );
#187 =  ( NAMED_UNIT( #112 )LENGTH_UNIT(  )SI_UNIT( .MILLI., .METRE. ) );
#188 = DRAUGHTING_PRE_DEFINED_CURVE_FONT( 'continuous' );
#189 = COLOUR_RGB( '', 0.689999997615810, 0.689999997615810, 0.689999997615810 );
#190 = AXIS2_PLACEMENT_3D( '', #266, #267, #268 );
#191 = PRE_DEFINED_MARKER( '' );
#192 = COLOUR_RGB( '', 0.689999997615810, 0.689999997615810, 0.689999997615810 );
#193 = DRAUGHTING_PRE_DEFINED_CURVE_FONT( 'continuous' );
#194 = COLOUR_RGB( '', 0.689999997615810, 0.689999997615810, 0.689999997615810 );
#195 = CARTESIAN_POINT( '', ( 0.000000000000000, -2.00223138849959E-014, -163.500000000000 ) );
#196 = VECTOR( '', #269, 1.00000000000000 );
#197 = DRAUGHTING_PRE_DEFINED_CURVE_FONT( 'continuous' );
#198 = COLOUR_RGB( '', 0.689999997615810, 0.689999997615810, 0.689999997615810 );
#199 = AXIS2_PLACEMENT_3D( '', #270, #271, #272 );
#200 = SURFACE_SIDE_STYLE( '', ( #273 ) );
#201 = EDGE_LOOP( '', ( #274, #275 ) );
#202 = EDGE_LOOP( '', ( #276, #277 ) );
#203 = AXIS2_PLACEMENT_3D( '', #278, #279, #280 );
#204 = SURFACE_SIDE_STYLE( '', ( #281 ) );
#205 = EDGE_LOOP( '', ( #282, #283, #284, #285 ) );
#206 = AXIS2_PLACEMENT_3D( '', #286, #287, #288 );
#207 = DRAUGHTING_PRE_DEFINED_CURVE_FONT( 'continuous' );
#208 = COLOUR_RGB( '', 0.689999997615810, 0.689999997615810, 0.689999997615810 );
#209 = CARTESIAN_POINT( '', ( 0.000000000000000, 2.75536429610035E-014, 225.000000000000 ) );
#210 = VECTOR( '', #289, 1.00000000000000 );
#211 = SURFACE_SIDE_STYLE( '', ( #290 ) );
#212 = EDGE_LOOP( '', ( #291, #292, #293, #294 ) );
#213 = AXIS2_PLACEMENT_3D( '', #295, #296, #297 );
#214 = PRE_DEFINED_MARKER( '' );
#215 = COLOUR_RGB( '', 0.689999997615810, 0.689999997615810, 0.689999997615810 );
#216 = DRAUGHTING_PRE_DEFINED_CURVE_FONT( 'continuous' );
#217 = COLOUR_RGB( '', 0.689999997615810, 0.689999997615810, 0.689999997615810 );
#218 = AXIS2_PLACEMENT_3D( '', #298, #299, #300 );
#219 = DRAUGHTING_PRE_DEFINED_CURVE_FONT( 'continuous' );
#220 = COLOUR_RGB( '', 0.689999997615810, 0.689999997615810, 0.689999997615810 );
#221 = AXIS2_PLACEMENT_3D( '', #301, #302, #303 );
#222 = DRAUGHTING_PRE_DEFINED_CURVE_FONT( 'continuous' );
#223 = COLOUR_RGB( '', 0.689999997615810, 0.689999997615810, 0.689999997615810 );
#224 = AXIS2_PLACEMENT_3D( '', #304, #305, #306 );
#225 = DRAUGHTING_PRE_DEFINED_CURVE_FONT( 'continuous' );
#226 = COLOUR_RGB( '', 0.689999997615810, 0.689999997615810, 0.689999997615810 );
#227 = AXIS2_PLACEMENT_3D( '', #307, #308, #309 );
#228 = DRAUGHTING_PRE_DEFINED_CURVE_FONT( 'continuous' );
#229 = COLOUR_RGB( '', 0.689999997615810, 0.689999997615810, 0.689999997615810 );
#230 = CARTESIAN_POINT( '', ( 0.000000000000000, -2.75536429610035E-014, -225.000000000000 ) );
#231 = VECTOR( '', #310, 1.00000000000000 );
#232 = PRE_DEFINED_MARKER( '' );
#233 = COLOUR_RGB( '', 0.689999997615810, 0.689999997615810, 0.689999997615810 );
#234 = PRE_DEFINED_MARKER( '' );
#235 = COLOUR_RGB( '', 0.689999997615810, 0.689999997615810, 0.689999997615810 );
#236 = PRE_DEFINED_MARKER( '' );
#237 = COLOUR_RGB( '', 0.689999997615810, 0.689999997615810, 0.689999997615810 );
#238 = SURFACE_SIDE_STYLE( '', ( #311 ) );
#239 = EDGE_LOOP( '', ( #312, #313 ) );
#240 = EDGE_LOOP( '', ( #314, #315 ) );
#241 = AXIS2_PLACEMENT_3D( '', #316, #317, #318 );
#242 = PRE_DEFINED_MARKER( '' );
#243 = COLOUR_RGB( '', 0.689999997615810, 0.689999997615810, 0.689999997615810 );
#244 = DRAUGHTING_PRE_DEFINED_CURVE_FONT( 'continuous' );
#245 = COLOUR_RGB( '', 0.689999997615810, 0.689999997615810, 0.689999997615810 );
#246 = AXIS2_PLACEMENT_3D( '', #319, #320, #321 );
#247 = DRAUGHTING_PRE_DEFINED_CURVE_FONT( 'continuous' );
#248 = COLOUR_RGB( '', 0.689999997615810, 0.689999997615810, 0.689999997615810 );
#249 = CARTESIAN_POINT( '', ( 0.000000000000000, 2.00223138849959E-014, 163.500000000000 ) );
#250 = VECTOR( '', #322, 1.00000000000000 );
#251 = SURFACE_SIDE_STYLE( '', ( #323 ) );
#252 = EDGE_LOOP( '', ( #324, #325, #326, #327 ) );
#253 = AXIS2_PLACEMENT_3D( '', #328, #329, #330 );
#254 = SURFACE_SIDE_STYLE( '', ( #331 ) );
#255 = PRE_DEFINED_MARKER( '' );
#256 = COLOUR_RGB( '', 0.689999997615810, 0.689999997615810, 0.689999997615810 );
#257 = SURFACE_SIDE_STYLE( '', ( #332 ) );
#258 = EDGE_LOOP( '', ( #333, #334, #335, #336 ) );
#259 = AXIS2_PLACEMENT_3D( '', #337, #338, #339 );
#260 = DRAUGHTING_PRE_DEFINED_CURVE_FONT( 'continuous' );
#261 = COLOUR_RGB( '', 0.689999997615810, 0.689999997615810, 0.689999997615810 );
#262 = AXIS2_PLACEMENT_3D( '', #340, #341, #342 );
#263 = PRE_DEFINED_MARKER( '' );
#264 = COLOUR_RGB( '', 0.689999997615810, 0.689999997615810, 0.689999997615810 );
#266 = CARTESIAN_POINT( '', ( 0.000000000000000, 0.000000000000000, 0.000000000000000 ) );
#267 = DIRECTION( '', ( 1.00000000000000, -0.000000000000000, 0.000000000000000 ) );
#268 = DIRECTION( '', ( 0.000000000000000, 0.000000000000000, -1.00000000000000 ) );
#269 = DIRECTION( '', ( 1.00000000000000, 0.000000000000000, 0.000000000000000 ) );
#270 = CARTESIAN_POINT( '', ( 0.000000000000000, 0.000000000000000, 0.000000000000000 ) );
#271 = DIRECTION( '', ( 1.00000000000000, -0.000000000000000, 0.000000000000000 ) );
#272 = DIRECTION( '', ( 0.000000000000000, 0.000000000000000, -1.00000000000000 ) );
#273 = SURFACE_STYLE_FILL_AREA( #343 );
#274 = ORIENTED_EDGE( '', *, *, #73, .F. );
#275 = ORIENTED_EDGE( '', *, *, #57, .F. );
#276 = ORIENTED_EDGE( '', *, *, #89, .T. );
#277 = ORIENTED_EDGE( '', *, *, #51, .T. );
#278 = CARTESIAN_POINT( '', ( 0.000000000000000, 0.000000000000000, 0.000000000000000 ) );
#279 = DIRECTION( '', ( 1.00000000000000, 0.000000000000000, 0.000000000000000 ) );
#280 = DIRECTION( '', ( 0.000000000000000, 0.000000000000000, -1.00000000000000 ) );
#281 = SURFACE_STYLE_FILL_AREA( #344 );
#282 = ORIENTED_EDGE( '', *, *, #77, .T. );
#283 = ORIENTED_EDGE( '', *, *, #101, .T. );
#284 = ORIENTED_EDGE( '', *, *, #63, .T. );
#285 = ORIENTED_EDGE( '', *, *, #57, .T. );
#286 = CARTESIAN_POINT( '', ( 0.000000000000000, 0.000000000000000, 0.000000000000000 ) );
#287 = DIRECTION( '', ( -1.00000000000000, -0.000000000000000, -0.000000000000000 ) );
#288 = DIRECTION( '', ( 0.000000000000000, 0.000000000000000, -1.00000000000000 ) );
#289 = DIRECTION( '', ( -1.00000000000000, -0.000000000000000, -0.000000000000000 ) );
#290 = SURFACE_STYLE_FILL_AREA( #345 );
#291 = ORIENTED_EDGE( '', *, *, #77, .F. );
#292 = ORIENTED_EDGE( '', *, *, #73, .T. );
#293 = ORIENTED_EDGE( '', *, *, #63, .F. );
#294 = ORIENTED_EDGE( '', *, *, #75, .T. );
#295 = CARTESIAN_POINT( '', ( 0.000000000000000, 0.000000000000000, 0.000000000000000 ) );
#296 = DIRECTION( '', ( -1.00000000000000, -0.000000000000000, -0.000000000000000 ) );
#297 = DIRECTION( '', ( 0.000000000000000, 0.000000000000000, -1.00000000000000 ) );
#298 = CARTESIAN_POINT( '', ( 5000.00000000000, 0.000000000000000, 0.000000000000000 ) );
#299 = DIRECTION( '', ( 1.00000000000000, 0.000000000000000, 0.000000000000000 ) );
#300 = DIRECTION( '', ( 0.000000000000000, 0.000000000000000, -1.00000000000000 ) );
#301 = CARTESIAN_POINT( '', ( 5000.00000000000, 0.000000000000000, 0.000000000000000 ) );
#302 = DIRECTION( '', ( 1.00000000000000, 0.000000000000000, 0.000000000000000 ) );
#303 = DIRECTION( '', ( 0.000000000000000, 0.000000000000000, -1.00000000000000 ) );
#304 = CARTESIAN_POINT( '', ( 0.000000000000000, 0.000000000000000, 0.000000000000000 ) );
#305 = DIRECTION( '', ( 1.00000000000000, -0.000000000000000, 0.000000000000000 ) );
#306 = DIRECTION( '', ( 0.000000000000000, 0.000000000000000, -1.00000000000000 ) );
#307 = CARTESIAN_POINT( '', ( 5000.00000000000, 0.000000000000000, 0.000000000000000 ) );
#308 = DIRECTION( '', ( -1.00000000000000, 0.000000000000000, 0.000000000000000 ) );
#309 = DIRECTION( '', ( 0.000000000000000, 0.000000000000000, -1.00000000000000 ) );
#310 = DIRECTION( '', ( 1.00000000000000, 0.000000000000000, 0.000000000000000 ) );
#311 = SURFACE_STYLE_FILL_AREA( #346 );
#312 = ORIENTED_EDGE( '', *, *, #101, .F. );
#313 = ORIENTED_EDGE( '', *, *, #75, .F. );
#314 = ORIENTED_EDGE( '', *, *, #69, .F. );
#315 = ORIENTED_EDGE( '', *, *, #71, .F. );
#316 = CARTESIAN_POINT( '', ( 5000.00000000000, 0.000000000000000, 0.000000000000000 ) );
#317 = DIRECTION( '', ( 1.00000000000000, 0.000000000000000, 0.000000000000000 ) );
#318 = DIRECTION( '', ( 0.000000000000000, 0.000000000000000, -1.00000000000000 ) );
#319 = CARTESIAN_POINT( '', ( 0.000000000000000, 0.000000000000000, 0.000000000000000 ) );
#320 = DIRECTION( '', ( 1.00000000000000, -0.000000000000000, 0.000000000000000 ) );
#321 = DIRECTION( '', ( 0.000000000000000, 0.000000000000000, -1.00000000000000 ) );
#322 = DIRECTION( '', ( -1.00000000000000, 0.000000000000000, 0.000000000000000 ) );
#323 = SURFACE_STYLE_FILL_AREA( #347 );
#324 = ORIENTED_EDGE( '', *, *, #55, .T. );
#325 = ORIENTED_EDGE( '', *, *, #69, .T. );
#326 = ORIENTED_EDGE( '', *, *, #91, .T. );
#327 = ORIENTED_EDGE( '', *, *, #89, .F. );
#328 = CARTESIAN_POINT( '', ( 0.000000000000000, 0.000000000000000, 0.000000000000000 ) );
#329 = DIRECTION( '', ( -1.00000000000000, -0.000000000000000, -0.000000000000000 ) );
#330 = DIRECTION( '', ( 0.000000000000000, 0.000000000000000, -1.00000000000000 ) );
#331 = SURFACE_STYLE_FILL_AREA( #348 );
#332 = SURFACE_STYLE_FILL_AREA( #349 );
#333 = ORIENTED_EDGE( '', *, *, #55, .F. );
#334 = ORIENTED_EDGE( '', *, *, #51, .F. );
#335 = ORIENTED_EDGE( '', *, *, #91, .F. );
#336 = ORIENTED_EDGE( '', *, *, #71, .T. );
#337 = CARTESIAN_POINT( '', ( 0.000000000000000, 0.000000000000000, 0.000000000000000 ) );
#338 = DIRECTION( '', ( -1.00000000000000, -0.000000000000000, -0.000000000000000 ) );
#339 = DIRECTION( '', ( 0.000000000000000, 0.000000000000000, -1.00000000000000 ) );
#340 = CARTESIAN_POINT( '', ( 5000.00000000000, 0.000000000000000, 0.000000000000000 ) );
#341 = DIRECTION( '', ( -1.00000000000000, 0.000000000000000, 0.000000000000000 ) );
#342 = DIRECTION( '', ( 0.000000000000000, 0.000000000000000, -1.00000000000000 ) );
#343 = FILL_AREA_STYLE( '', ( #350 ) );
#344 = FILL_AREA_STYLE( '', ( #351 ) );
#345 = FILL_AREA_STYLE( '', ( #352 ) );
#346 = FILL_AREA_STYLE( '', ( #353 ) );
#347 = FILL_AREA_STYLE( '', ( #354 ) );
#348 = FILL_AREA_STYLE( '', ( #355 ) );
#349 = FILL_AREA_STYLE( '', ( #356 ) );
#350 = FILL_AREA_STYLE_COLOUR( '', #357 );
#351 = FILL_AREA_STYLE_COLOUR( '', #358 );
#352 = FILL_AREA_STYLE_COLOUR( '', #359 );
#353 = FILL_AREA_STYLE_COLOUR( '', #360 );
#354 = FILL_AREA_STYLE_COLOUR( '', #361 );
#355 = FILL_AREA_STYLE_COLOUR( '', #362 );
#356 = FILL_AREA_STYLE_COLOUR( '', #363 );
#357 = COLOUR_RGB( '', 0.689999997615810, 0.689999997615810, 0.689999997615810 );
#358 = COLOUR_RGB( '', 0.689999997615810, 0.689999997615810, 0.689999997615810 );
#359 = COLOUR_RGB( '', 0.689999997615810, 0.689999997615810, 0.689999997615810 );
#360 = COLOUR_RGB( '', 0.689999997615810, 0.689999997615810, 0.689999997615810 );
#361 = COLOUR_RGB( '', 0.689999997615810, 0.689999997615810, 0.689999997615810 );
#362 = COLOUR_RGB( '', 0.689999997615810, 0.689999997615810, 0.689999997615810 );
#363 = COLOUR_RGB( '', 0.689999997615810, 0.689999997615810, 0.689999997615810 );
ENDSEC;
END-ISO-10303-21;
