ISO-10303-21;
HEADER;
FILE_DESCRIPTION( ( '' ), '1' );
FILE_NAME( '//se01002/users/anro/AGRU_25705002511_PE_100_schwarz_Rohr__5m_25X2_3__SDR11__ISO_S-5_05.stp', '2017-12-11T09:33:53', ( '' ), ( '' ), ' ', ' ', ' ' );
FILE_SCHEMA( ( 'automotive_design' ) );
ENDSEC;
DATA;
#1 = MECHANICAL_DESIGN_GEOMETRIC_PRESENTATION_REPRESENTATION( ' ', ( #10, #11, #12, #13, #14, #15, #16, #17, #18, #19, #20, #21, #22, #23, #24, #25, #26, #27, #28, #29, #30, #31, #32, #33, #34, #35, #36 ), #6 );
#2 = PRODUCT_DEFINITION_CONTEXT( '', #37, 'design' );
#3 = APPLICATION_PROTOCOL_DEFINITION( 'INTERNATIONAL STANDARD', 'automotive_design', 1994, #37 );
#4 = PRODUCT_CATEGORY_RELATIONSHIP( 'NONE', 'NONE', #38, #39 );
#5 = SHAPE_DEFINITION_REPRESENTATION( #40, #41 );
#6 =  ( GEOMETRIC_REPRESENTATION_CONTEXT( 3 )GLOBAL_UNCERTAINTY_ASSIGNED_CONTEXT( ( #44 ) )GLOBAL_UNIT_ASSIGNED_CONTEXT( ( #46, #47, #48 ) )REPRESENTATION_CONTEXT( 'NONE', 'WORKSPACE' ) );
#10 = STYLED_ITEM( '', ( #50 ), #51 );
#11 = STYLED_ITEM( '', ( #52 ), #53 );
#12 = STYLED_ITEM( '', ( #54 ), #55 );
#13 = STYLED_ITEM( '', ( #56 ), #57 );
#14 = STYLED_ITEM( '', ( #58 ), #59 );
#15 = STYLED_ITEM( '', ( #60 ), #61 );
#16 = STYLED_ITEM( '', ( #62 ), #63 );
#17 = STYLED_ITEM( '', ( #64 ), #65 );
#18 = STYLED_ITEM( '', ( #66 ), #67 );
#19 = STYLED_ITEM( '', ( #68 ), #69 );
#20 = STYLED_ITEM( '', ( #70 ), #71 );
#21 = STYLED_ITEM( '', ( #72 ), #73 );
#22 = STYLED_ITEM( '', ( #74 ), #75 );
#23 = STYLED_ITEM( '', ( #76 ), #77 );
#24 = STYLED_ITEM( '', ( #78 ), #79 );
#25 = STYLED_ITEM( '', ( #80 ), #81 );
#26 = STYLED_ITEM( '', ( #82 ), #83 );
#27 = STYLED_ITEM( '', ( #84 ), #85 );
#28 = STYLED_ITEM( '', ( #86 ), #87 );
#29 = STYLED_ITEM( '', ( #88 ), #89 );
#30 = STYLED_ITEM( '', ( #90 ), #91 );
#31 = STYLED_ITEM( '', ( #92 ), #93 );
#32 = STYLED_ITEM( '', ( #94 ), #95 );
#33 = STYLED_ITEM( '', ( #96 ), #97 );
#34 = STYLED_ITEM( '', ( #98 ), #99 );
#35 = STYLED_ITEM( '', ( #100 ), #101 );
#36 = STYLED_ITEM( '', ( #102 ), #103 );
#37 = APPLICATION_CONTEXT( ' ' );
#38 = PRODUCT_CATEGORY( 'part', 'NONE' );
#39 = PRODUCT_RELATED_PRODUCT_CATEGORY( 'detail', ' ', ( #104 ) );
#40 = PRODUCT_DEFINITION_SHAPE( 'NONE', 'NONE', #105 );
#41 = ADVANCED_BREP_SHAPE_REPRESENTATION( '1', ( #101, #106 ), #6 );
#44 = UNCERTAINTY_MEASURE_WITH_UNIT( LENGTH_MEASURE( 1.00000000000000E-006 ), #46, '', '' );
#46 =  ( CONVERSION_BASED_UNIT( 'MILLIMETRE', #109 )LENGTH_UNIT(  )NAMED_UNIT( #112 ) );
#47 =  ( NAMED_UNIT( #114 )PLANE_ANGLE_UNIT(  )SI_UNIT( $, .RADIAN. ) );
#48 =  ( NAMED_UNIT( #114 )SOLID_ANGLE_UNIT(  )SI_UNIT( $, .STERADIAN. ) );
#50 = PRESENTATION_STYLE_ASSIGNMENT( ( #120 ) );
#51 = EDGE_CURVE( '', #55, #91, #121, .T. );
#52 = PRESENTATION_STYLE_ASSIGNMENT( ( #122 ) );
#53 = ADVANCED_FACE( '', ( #123, #124 ), #125, .T. );
#54 = PRESENTATION_STYLE_ASSIGNMENT( ( #126 ) );
#55 = VERTEX_POINT( '', #127 );
#56 = PRESENTATION_STYLE_ASSIGNMENT( ( #128 ) );
#57 = ADVANCED_FACE( '', ( #129 ), #130, .T. );
#58 = PRESENTATION_STYLE_ASSIGNMENT( ( #131 ) );
#59 = EDGE_CURVE( '', #63, #71, #132, .T. );
#60 = PRESENTATION_STYLE_ASSIGNMENT( ( #133 ) );
#61 = EDGE_CURVE( '', #79, #87, #134, .T. );
#62 = PRESENTATION_STYLE_ASSIGNMENT( ( #135 ) );
#63 = VERTEX_POINT( '', #136 );
#64 = PRESENTATION_STYLE_ASSIGNMENT( ( #137 ) );
#65 = EDGE_CURVE( '', #71, #97, #138, .T. );
#66 = PRESENTATION_STYLE_ASSIGNMENT( ( #139 ) );
#67 = EDGE_CURVE( '', #87, #55, #140, .T. );
#68 = PRESENTATION_STYLE_ASSIGNMENT( ( #141 ) );
#69 = EDGE_CURVE( '', #97, #93, #142, .T. );
#70 = PRESENTATION_STYLE_ASSIGNMENT( ( #143 ) );
#71 = VERTEX_POINT( '', #144 );
#72 = PRESENTATION_STYLE_ASSIGNMENT( ( #145 ) );
#73 = EDGE_CURVE( '', #79, #91, #146, .T. );
#74 = PRESENTATION_STYLE_ASSIGNMENT( ( #147 ) );
#75 = EDGE_CURVE( '', #93, #97, #148, .T. );
#76 = PRESENTATION_STYLE_ASSIGNMENT( ( #149 ) );
#77 = EDGE_CURVE( '', #71, #63, #150, .T. );
#78 = PRESENTATION_STYLE_ASSIGNMENT( ( #151 ) );
#79 = VERTEX_POINT( '', #152 );
#80 = PRESENTATION_STYLE_ASSIGNMENT( ( #153 ) );
#81 = EDGE_CURVE( '', #55, #87, #154, .T. );
#82 = PRESENTATION_STYLE_ASSIGNMENT( ( #155 ) );
#83 = ADVANCED_FACE( '', ( #156 ), #157, .T. );
#84 = PRESENTATION_STYLE_ASSIGNMENT( ( #158 ) );
#85 = EDGE_CURVE( '', #91, #79, #159, .T. );
#86 = PRESENTATION_STYLE_ASSIGNMENT( ( #160 ) );
#87 = VERTEX_POINT( '', #161 );
#88 = PRESENTATION_STYLE_ASSIGNMENT( ( #162 ) );
#89 = EDGE_CURVE( '', #93, #63, #163, .T. );
#90 = PRESENTATION_STYLE_ASSIGNMENT( ( #164 ) );
#91 = VERTEX_POINT( '', #165 );
#92 = PRESENTATION_STYLE_ASSIGNMENT( ( #166 ) );
#93 = VERTEX_POINT( '', #167 );
#94 = PRESENTATION_STYLE_ASSIGNMENT( ( #168 ) );
#95 = ADVANCED_FACE( '', ( #169 ), #170, .F. );
#96 = PRESENTATION_STYLE_ASSIGNMENT( ( #171 ) );
#97 = VERTEX_POINT( '', #172 );
#98 = PRESENTATION_STYLE_ASSIGNMENT( ( #173 ) );
#99 = ADVANCED_FACE( '', ( #174 ), #175, .F. );
#100 = PRESENTATION_STYLE_ASSIGNMENT( ( #176 ) );
#101 = MANIFOLD_SOLID_BREP( '1', #177 );
#102 = PRESENTATION_STYLE_ASSIGNMENT( ( #178 ) );
#103 = ADVANCED_FACE( '', ( #179, #180 ), #181, .F. );
#104 = PRODUCT( '1', '1', 'PART-1-DESC', ( #182 ) );
#105 = PRODUCT_DEFINITION( 'NONE', 'NONE', #183, #2 );
#106 = AXIS2_PLACEMENT_3D( '', #184, #185, #186 );
#109 = LENGTH_MEASURE_WITH_UNIT( LENGTH_MEASURE( 1.00000000000000 ), #187 );
#112 = DIMENSIONAL_EXPONENTS( 1.00000000000000, 0.000000000000000, 0.000000000000000, 0.000000000000000, 0.000000000000000, 0.000000000000000, 0.000000000000000 );
#114 = DIMENSIONAL_EXPONENTS( 0.000000000000000, 0.000000000000000, 0.000000000000000, 0.000000000000000, 0.000000000000000, 0.000000000000000, 0.000000000000000 );
#120 = CURVE_STYLE( '', #188, POSITIVE_LENGTH_MEASURE( 1.00000000000000E-006 ), #189 );
#121 = LINE( '', #190, #191 );
#122 = SURFACE_STYLE_USAGE( .BOTH., #192 );
#123 = FACE_OUTER_BOUND( '', #193, .T. );
#124 = FACE_BOUND( '', #194, .T. );
#125 = PLANE( '', #195 );
#126 = POINT_STYLE( ' ', #196, POSITIVE_LENGTH_MEASURE( 1.00000000000000E-006 ), #197 );
#127 = CARTESIAN_POINT( '', ( 0.000000000000000, 0.000000000000000, -12.5000000000000 ) );
#128 = SURFACE_STYLE_USAGE( .BOTH., #198 );
#129 = FACE_OUTER_BOUND( '', #199, .T. );
#130 = CYLINDRICAL_SURFACE( '', #200, 12.5000000000000 );
#131 = CURVE_STYLE( '', #201, POSITIVE_LENGTH_MEASURE( 1.00000000000000E-006 ), #202 );
#132 = CIRCLE( '', #203, 10.2000000000000 );
#133 = CURVE_STYLE( '', #204, POSITIVE_LENGTH_MEASURE( 1.00000000000000E-006 ), #205 );
#134 = LINE( '', #206, #207 );
#135 = POINT_STYLE( ' ', #208, POSITIVE_LENGTH_MEASURE( 1.00000000000000E-006 ), #209 );
#136 = CARTESIAN_POINT( '', ( 5000.00000000000, 0.000000000000000, -10.2000000000000 ) );
#137 = CURVE_STYLE( '', #210, POSITIVE_LENGTH_MEASURE( 1.00000000000000E-006 ), #211 );
#138 = LINE( '', #212, #213 );
#139 = CURVE_STYLE( '', #214, POSITIVE_LENGTH_MEASURE( 1.00000000000000E-006 ), #215 );
#140 = CIRCLE( '', #216, 12.5000000000000 );
#141 = CURVE_STYLE( '', #217, POSITIVE_LENGTH_MEASURE( 1.00000000000000E-006 ), #218 );
#142 = CIRCLE( '', #219, 10.2000000000000 );
#143 = POINT_STYLE( ' ', #220, POSITIVE_LENGTH_MEASURE( 1.00000000000000E-006 ), #221 );
#144 = CARTESIAN_POINT( '', ( 5000.00000000000, 1.24909848089882E-015, 10.2000000000000 ) );
#145 = CURVE_STYLE( '', #222, POSITIVE_LENGTH_MEASURE( 1.00000000000000E-006 ), #223 );
#146 = CIRCLE( '', #224, 12.5000000000000 );
#147 = CURVE_STYLE( '', #225, POSITIVE_LENGTH_MEASURE( 1.00000000000000E-006 ), #226 );
#148 = CIRCLE( '', #227, 10.2000000000000 );
#149 = CURVE_STYLE( '', #228, POSITIVE_LENGTH_MEASURE( 1.00000000000000E-006 ), #229 );
#150 = CIRCLE( '', #230, 10.2000000000000 );
#151 = POINT_STYLE( ' ', #231, POSITIVE_LENGTH_MEASURE( 1.00000000000000E-006 ), #232 );
#152 = CARTESIAN_POINT( '', ( 5000.00000000000, 1.53075794227797E-015, 12.5000000000000 ) );
#153 = CURVE_STYLE( '', #233, POSITIVE_LENGTH_MEASURE( 1.00000000000000E-006 ), #234 );
#154 = CIRCLE( '', #235, 12.5000000000000 );
#155 = SURFACE_STYLE_USAGE( .BOTH., #236 );
#156 = FACE_OUTER_BOUND( '', #237, .T. );
#157 = CYLINDRICAL_SURFACE( '', #238, 12.5000000000000 );
#158 = CURVE_STYLE( '', #239, POSITIVE_LENGTH_MEASURE( 1.00000000000000E-006 ), #240 );
#159 = CIRCLE( '', #241, 12.5000000000000 );
#160 = POINT_STYLE( ' ', #242, POSITIVE_LENGTH_MEASURE( 1.00000000000000E-006 ), #243 );
#161 = CARTESIAN_POINT( '', ( 0.000000000000000, 1.53075794227797E-015, 12.5000000000000 ) );
#162 = CURVE_STYLE( '', #244, POSITIVE_LENGTH_MEASURE( 1.00000000000000E-006 ), #245 );
#163 = LINE( '', #246, #247 );
#164 = POINT_STYLE( ' ', #248, POSITIVE_LENGTH_MEASURE( 1.00000000000000E-006 ), #249 );
#165 = CARTESIAN_POINT( '', ( 5000.00000000000, 0.000000000000000, -12.5000000000000 ) );
#166 = POINT_STYLE( ' ', #250, POSITIVE_LENGTH_MEASURE( 1.00000000000000E-006 ), #251 );
#167 = CARTESIAN_POINT( '', ( 0.000000000000000, 0.000000000000000, -10.2000000000000 ) );
#168 = SURFACE_STYLE_USAGE( .BOTH., #252 );
#169 = FACE_OUTER_BOUND( '', #253, .T. );
#170 = CYLINDRICAL_SURFACE( '', #254, 10.2000000000000 );
#171 = POINT_STYLE( ' ', #255, POSITIVE_LENGTH_MEASURE( 1.00000000000000E-006 ), #256 );
#172 = CARTESIAN_POINT( '', ( 0.000000000000000, 1.24909848089882E-015, 10.2000000000000 ) );
#173 = SURFACE_STYLE_USAGE( .BOTH., #257 );
#174 = FACE_OUTER_BOUND( '', #258, .T. );
#175 = CYLINDRICAL_SURFACE( '', #259, 10.2000000000000 );
#176 = SURFACE_STYLE_USAGE( .BOTH., #260 );
#177 = CLOSED_SHELL( '', ( #83, #95, #99, #57, #53, #103 ) );
#178 = SURFACE_STYLE_USAGE( .BOTH., #261 );
#179 = FACE_OUTER_BOUND( '', #262, .T. );
#180 = FACE_BOUND( '', #263, .T. );
#181 = PLANE( '', #264 );
#182 = PRODUCT_CONTEXT( '', #37, 'mechanical' );
#183 = PRODUCT_DEFINITION_FORMATION_WITH_SPECIFIED_SOURCE( ' ', 'NONE', #104, .NOT_KNOWN. );
#184 = CARTESIAN_POINT( '', ( 0.000000000000000, 0.000000000000000, 0.000000000000000 ) );
#185 = DIRECTION( '', ( 0.000000000000000, 0.000000000000000, 1.00000000000000 ) );
#186 = DIRECTION( '', ( 1.00000000000000, 0.000000000000000, 0.000000000000000 ) );
#187 =  ( NAMED_UNIT( #112 )LENGTH_UNIT(  )SI_UNIT( .MILLI., .METRE. ) );
#188 = DRAUGHTING_PRE_DEFINED_CURVE_FONT( 'continuous' );
#189 = COLOUR_RGB( '', 0.689999997615810, 0.689999997615810, 0.689999997615810 );
#190 = CARTESIAN_POINT( '', ( 0.000000000000000, -1.53075794227797E-015, -12.5000000000000 ) );
#191 = VECTOR( '', #266, 1.00000000000000 );
#192 = SURFACE_SIDE_STYLE( '', ( #267 ) );
#193 = EDGE_LOOP( '', ( #268, #269 ) );
#194 = EDGE_LOOP( '', ( #270, #271 ) );
#195 = AXIS2_PLACEMENT_3D( '', #272, #273, #274 );
#196 = PRE_DEFINED_MARKER( '' );
#197 = COLOUR_RGB( '', 0.689999997615810, 0.689999997615810, 0.689999997615810 );
#198 = SURFACE_SIDE_STYLE( '', ( #275 ) );
#199 = EDGE_LOOP( '', ( #276, #277, #278, #279 ) );
#200 = AXIS2_PLACEMENT_3D( '', #280, #281, #282 );
#201 = DRAUGHTING_PRE_DEFINED_CURVE_FONT( 'continuous' );
#202 = COLOUR_RGB( '', 0.689999997615810, 0.689999997615810, 0.689999997615810 );
#203 = AXIS2_PLACEMENT_3D( '', #283, #284, #285 );
#204 = DRAUGHTING_PRE_DEFINED_CURVE_FONT( 'continuous' );
#205 = COLOUR_RGB( '', 0.689999997615810, 0.689999997615810, 0.689999997615810 );
#206 = CARTESIAN_POINT( '', ( 0.000000000000000, 1.53075794227797E-015, 12.5000000000000 ) );
#207 = VECTOR( '', #286, 1.00000000000000 );
#208 = PRE_DEFINED_MARKER( '' );
#209 = COLOUR_RGB( '', 0.689999997615810, 0.689999997615810, 0.689999997615810 );
#210 = DRAUGHTING_PRE_DEFINED_CURVE_FONT( 'continuous' );
#211 = COLOUR_RGB( '', 0.689999997615810, 0.689999997615810, 0.689999997615810 );
#212 = CARTESIAN_POINT( '', ( 0.000000000000000, 1.24909848089882E-015, 10.2000000000000 ) );
#213 = VECTOR( '', #287, 1.00000000000000 );
#214 = DRAUGHTING_PRE_DEFINED_CURVE_FONT( 'continuous' );
#215 = COLOUR_RGB( '', 0.689999997615810, 0.689999997615810, 0.689999997615810 );
#216 = AXIS2_PLACEMENT_3D( '', #288, #289, #290 );
#217 = DRAUGHTING_PRE_DEFINED_CURVE_FONT( 'continuous' );
#218 = COLOUR_RGB( '', 0.689999997615810, 0.689999997615810, 0.689999997615810 );
#219 = AXIS2_PLACEMENT_3D( '', #291, #292, #293 );
#220 = PRE_DEFINED_MARKER( '' );
#221 = COLOUR_RGB( '', 0.689999997615810, 0.689999997615810, 0.689999997615810 );
#222 = DRAUGHTING_PRE_DEFINED_CURVE_FONT( 'continuous' );
#223 = COLOUR_RGB( '', 0.689999997615810, 0.689999997615810, 0.689999997615810 );
#224 = AXIS2_PLACEMENT_3D( '', #294, #295, #296 );
#225 = DRAUGHTING_PRE_DEFINED_CURVE_FONT( 'continuous' );
#226 = COLOUR_RGB( '', 0.689999997615810, 0.689999997615810, 0.689999997615810 );
#227 = AXIS2_PLACEMENT_3D( '', #297, #298, #299 );
#228 = DRAUGHTING_PRE_DEFINED_CURVE_FONT( 'continuous' );
#229 = COLOUR_RGB( '', 0.689999997615810, 0.689999997615810, 0.689999997615810 );
#230 = AXIS2_PLACEMENT_3D( '', #300, #301, #302 );
#231 = PRE_DEFINED_MARKER( '' );
#232 = COLOUR_RGB( '', 0.689999997615810, 0.689999997615810, 0.689999997615810 );
#233 = DRAUGHTING_PRE_DEFINED_CURVE_FONT( 'continuous' );
#234 = COLOUR_RGB( '', 0.689999997615810, 0.689999997615810, 0.689999997615810 );
#235 = AXIS2_PLACEMENT_3D( '', #303, #304, #305 );
#236 = SURFACE_SIDE_STYLE( '', ( #306 ) );
#237 = EDGE_LOOP( '', ( #307, #308, #309, #310 ) );
#238 = AXIS2_PLACEMENT_3D( '', #311, #312, #313 );
#239 = DRAUGHTING_PRE_DEFINED_CURVE_FONT( 'continuous' );
#240 = COLOUR_RGB( '', 0.689999997615810, 0.689999997615810, 0.689999997615810 );
#241 = AXIS2_PLACEMENT_3D( '', #314, #315, #316 );
#242 = PRE_DEFINED_MARKER( '' );
#243 = COLOUR_RGB( '', 0.689999997615810, 0.689999997615810, 0.689999997615810 );
#244 = DRAUGHTING_PRE_DEFINED_CURVE_FONT( 'continuous' );
#245 = COLOUR_RGB( '', 0.689999997615810, 0.689999997615810, 0.689999997615810 );
#246 = CARTESIAN_POINT( '', ( 0.000000000000000, -1.24909848089882E-015, -10.2000000000000 ) );
#247 = VECTOR( '', #317, 1.00000000000000 );
#248 = PRE_DEFINED_MARKER( '' );
#249 = COLOUR_RGB( '', 0.689999997615810, 0.689999997615810, 0.689999997615810 );
#250 = PRE_DEFINED_MARKER( '' );
#251 = COLOUR_RGB( '', 0.689999997615810, 0.689999997615810, 0.689999997615810 );
#252 = SURFACE_SIDE_STYLE( '', ( #318 ) );
#253 = EDGE_LOOP( '', ( #319, #320, #321, #322 ) );
#254 = AXIS2_PLACEMENT_3D( '', #323, #324, #325 );
#255 = PRE_DEFINED_MARKER( '' );
#256 = COLOUR_RGB( '', 0.689999997615810, 0.689999997615810, 0.689999997615810 );
#257 = SURFACE_SIDE_STYLE( '', ( #326 ) );
#258 = EDGE_LOOP( '', ( #327, #328, #329, #330 ) );
#259 = AXIS2_PLACEMENT_3D( '', #331, #332, #333 );
#260 = SURFACE_SIDE_STYLE( '', ( #334 ) );
#261 = SURFACE_SIDE_STYLE( '', ( #335 ) );
#262 = EDGE_LOOP( '', ( #336, #337 ) );
#263 = EDGE_LOOP( '', ( #338, #339 ) );
#264 = AXIS2_PLACEMENT_3D( '', #340, #341, #342 );
#266 = DIRECTION( '', ( 1.00000000000000, 0.000000000000000, 0.000000000000000 ) );
#267 = SURFACE_STYLE_FILL_AREA( #343 );
#268 = ORIENTED_EDGE( '', *, *, #85, .F. );
#269 = ORIENTED_EDGE( '', *, *, #73, .F. );
#270 = ORIENTED_EDGE( '', *, *, #59, .F. );
#271 = ORIENTED_EDGE( '', *, *, #77, .F. );
#272 = CARTESIAN_POINT( '', ( 5000.00000000000, 0.000000000000000, 0.000000000000000 ) );
#273 = DIRECTION( '', ( 1.00000000000000, 0.000000000000000, 0.000000000000000 ) );
#274 = DIRECTION( '', ( 0.000000000000000, 0.000000000000000, -1.00000000000000 ) );
#275 = SURFACE_STYLE_FILL_AREA( #344 );
#276 = ORIENTED_EDGE( '', *, *, #51, .T. );
#277 = ORIENTED_EDGE( '', *, *, #85, .T. );
#278 = ORIENTED_EDGE( '', *, *, #61, .T. );
#279 = ORIENTED_EDGE( '', *, *, #67, .T. );
#280 = CARTESIAN_POINT( '', ( 0.000000000000000, 0.000000000000000, 0.000000000000000 ) );
#281 = DIRECTION( '', ( -1.00000000000000, -0.000000000000000, -0.000000000000000 ) );
#282 = DIRECTION( '', ( 0.000000000000000, 0.000000000000000, -1.00000000000000 ) );
#283 = CARTESIAN_POINT( '', ( 5000.00000000000, 0.000000000000000, 0.000000000000000 ) );
#284 = DIRECTION( '', ( 1.00000000000000, 0.000000000000000, 0.000000000000000 ) );
#285 = DIRECTION( '', ( 0.000000000000000, 0.000000000000000, -1.00000000000000 ) );
#286 = DIRECTION( '', ( -1.00000000000000, -0.000000000000000, -0.000000000000000 ) );
#287 = DIRECTION( '', ( -1.00000000000000, 0.000000000000000, 0.000000000000000 ) );
#288 = CARTESIAN_POINT( '', ( 0.000000000000000, 0.000000000000000, 0.000000000000000 ) );
#289 = DIRECTION( '', ( 1.00000000000000, -0.000000000000000, 0.000000000000000 ) );
#290 = DIRECTION( '', ( 0.000000000000000, 0.000000000000000, -1.00000000000000 ) );
#291 = CARTESIAN_POINT( '', ( 0.000000000000000, 0.000000000000000, 0.000000000000000 ) );
#292 = DIRECTION( '', ( 1.00000000000000, -0.000000000000000, 0.000000000000000 ) );
#293 = DIRECTION( '', ( 0.000000000000000, 0.000000000000000, -1.00000000000000 ) );
#294 = CARTESIAN_POINT( '', ( 5000.00000000000, 0.000000000000000, 0.000000000000000 ) );
#295 = DIRECTION( '', ( -1.00000000000000, 0.000000000000000, 0.000000000000000 ) );
#296 = DIRECTION( '', ( 0.000000000000000, 0.000000000000000, -1.00000000000000 ) );
#297 = CARTESIAN_POINT( '', ( 0.000000000000000, 0.000000000000000, 0.000000000000000 ) );
#298 = DIRECTION( '', ( 1.00000000000000, -0.000000000000000, 0.000000000000000 ) );
#299 = DIRECTION( '', ( 0.000000000000000, 0.000000000000000, -1.00000000000000 ) );
#300 = CARTESIAN_POINT( '', ( 5000.00000000000, 0.000000000000000, 0.000000000000000 ) );
#301 = DIRECTION( '', ( 1.00000000000000, 0.000000000000000, 0.000000000000000 ) );
#302 = DIRECTION( '', ( 0.000000000000000, 0.000000000000000, -1.00000000000000 ) );
#303 = CARTESIAN_POINT( '', ( 0.000000000000000, 0.000000000000000, 0.000000000000000 ) );
#304 = DIRECTION( '', ( 1.00000000000000, -0.000000000000000, 0.000000000000000 ) );
#305 = DIRECTION( '', ( 0.000000000000000, 0.000000000000000, -1.00000000000000 ) );
#306 = SURFACE_STYLE_FILL_AREA( #345 );
#307 = ORIENTED_EDGE( '', *, *, #51, .F. );
#308 = ORIENTED_EDGE( '', *, *, #81, .T. );
#309 = ORIENTED_EDGE( '', *, *, #61, .F. );
#310 = ORIENTED_EDGE( '', *, *, #73, .T. );
#311 = CARTESIAN_POINT( '', ( 0.000000000000000, 0.000000000000000, 0.000000000000000 ) );
#312 = DIRECTION( '', ( -1.00000000000000, -0.000000000000000, -0.000000000000000 ) );
#313 = DIRECTION( '', ( 0.000000000000000, 0.000000000000000, -1.00000000000000 ) );
#314 = CARTESIAN_POINT( '', ( 5000.00000000000, 0.000000000000000, 0.000000000000000 ) );
#315 = DIRECTION( '', ( -1.00000000000000, 0.000000000000000, 0.000000000000000 ) );
#316 = DIRECTION( '', ( 0.000000000000000, 0.000000000000000, -1.00000000000000 ) );
#317 = DIRECTION( '', ( 1.00000000000000, 0.000000000000000, 0.000000000000000 ) );
#318 = SURFACE_STYLE_FILL_AREA( #346 );
#319 = ORIENTED_EDGE( '', *, *, #89, .F. );
#320 = ORIENTED_EDGE( '', *, *, #69, .F. );
#321 = ORIENTED_EDGE( '', *, *, #65, .F. );
#322 = ORIENTED_EDGE( '', *, *, #77, .T. );
#323 = CARTESIAN_POINT( '', ( 0.000000000000000, 0.000000000000000, 0.000000000000000 ) );
#324 = DIRECTION( '', ( -1.00000000000000, -0.000000000000000, -0.000000000000000 ) );
#325 = DIRECTION( '', ( 0.000000000000000, 0.000000000000000, -1.00000000000000 ) );
#326 = SURFACE_STYLE_FILL_AREA( #347 );
#327 = ORIENTED_EDGE( '', *, *, #89, .T. );
#328 = ORIENTED_EDGE( '', *, *, #59, .T. );
#329 = ORIENTED_EDGE( '', *, *, #65, .T. );
#330 = ORIENTED_EDGE( '', *, *, #75, .F. );
#331 = CARTESIAN_POINT( '', ( 0.000000000000000, 0.000000000000000, 0.000000000000000 ) );
#332 = DIRECTION( '', ( -1.00000000000000, -0.000000000000000, -0.000000000000000 ) );
#333 = DIRECTION( '', ( 0.000000000000000, 0.000000000000000, -1.00000000000000 ) );
#334 = SURFACE_STYLE_FILL_AREA( #348 );
#335 = SURFACE_STYLE_FILL_AREA( #349 );
#336 = ORIENTED_EDGE( '', *, *, #81, .F. );
#337 = ORIENTED_EDGE( '', *, *, #67, .F. );
#338 = ORIENTED_EDGE( '', *, *, #75, .T. );
#339 = ORIENTED_EDGE( '', *, *, #69, .T. );
#340 = CARTESIAN_POINT( '', ( 0.000000000000000, 0.000000000000000, 0.000000000000000 ) );
#341 = DIRECTION( '', ( 1.00000000000000, 0.000000000000000, 0.000000000000000 ) );
#342 = DIRECTION( '', ( 0.000000000000000, 0.000000000000000, -1.00000000000000 ) );
#343 = FILL_AREA_STYLE( '', ( #350 ) );
#344 = FILL_AREA_STYLE( '', ( #351 ) );
#345 = FILL_AREA_STYLE( '', ( #352 ) );
#346 = FILL_AREA_STYLE( '', ( #353 ) );
#347 = FILL_AREA_STYLE( '', ( #354 ) );
#348 = FILL_AREA_STYLE( '', ( #355 ) );
#349 = FILL_AREA_STYLE( '', ( #356 ) );
#350 = FILL_AREA_STYLE_COLOUR( '', #357 );
#351 = FILL_AREA_STYLE_COLOUR( '', #358 );
#352 = FILL_AREA_STYLE_COLOUR( '', #359 );
#353 = FILL_AREA_STYLE_COLOUR( '', #360 );
#354 = FILL_AREA_STYLE_COLOUR( '', #361 );
#355 = FILL_AREA_STYLE_COLOUR( '', #362 );
#356 = FILL_AREA_STYLE_COLOUR( '', #363 );
#357 = COLOUR_RGB( '', 0.689999997615810, 0.689999997615810, 0.689999997615810 );
#358 = COLOUR_RGB( '', 0.689999997615810, 0.689999997615810, 0.689999997615810 );
#359 = COLOUR_RGB( '', 0.689999997615810, 0.689999997615810, 0.689999997615810 );
#360 = COLOUR_RGB( '', 0.689999997615810, 0.689999997615810, 0.689999997615810 );
#361 = COLOUR_RGB( '', 0.689999997615810, 0.689999997615810, 0.689999997615810 );
#362 = COLOUR_RGB( '', 0.689999997615810, 0.689999997615810, 0.689999997615810 );
#363 = COLOUR_RGB( '', 0.689999997615810, 0.689999997615810, 0.689999997615810 );
ENDSEC;
END-ISO-10303-21;
