ISO-10303-21;
HEADER;
FILE_DESCRIPTION( ( '' ), '1' );
FILE_NAME( '//se01002/users/anro/AGRU_12705022517_PPH_grau_Rohr__5m_225X12_8__SDR17_6__ISO_S-8_3_10.stp', '2018-02-07T07:41:11', ( '' ), ( '' ), ' ', ' ', ' ' );
FILE_SCHEMA( ( 'automotive_design' ) );
ENDSEC;
DATA;
#1 = MECHANICAL_DESIGN_GEOMETRIC_PRESENTATION_REPRESENTATION( ' ', ( #10, #11, #12, #13, #14, #15, #16, #17, #18, #19, #20, #21, #22, #23, #24, #25, #26, #27, #28, #29, #30, #31, #32, #33, #34, #35, #36 ), #6 );
#2 = PRODUCT_DEFINITION_CONTEXT( '', #37, 'design' );
#3 = APPLICATION_PROTOCOL_DEFINITION( 'INTERNATIONAL STANDARD', 'automotive_design', 1994, #37 );
#4 = PRODUCT_CATEGORY_RELATIONSHIP( 'NONE', 'NONE', #38, #39 );
#5 = SHAPE_DEFINITION_REPRESENTATION( #40, #41 );
#6 =  ( GEOMETRIC_REPRESENTATION_CONTEXT( 3 )GLOBAL_UNCERTAINTY_ASSIGNED_CONTEXT( ( #44 ) )GLOBAL_UNIT_ASSIGNED_CONTEXT( ( #46, #47, #48 ) )REPRESENTATION_CONTEXT( 'NONE', 'WORKSPACE' ) );
#10 = STYLED_ITEM( '', ( #50 ), #51 );
#11 = STYLED_ITEM( '', ( #52 ), #53 );
#12 = STYLED_ITEM( '', ( #54 ), #55 );
#13 = STYLED_ITEM( '', ( #56 ), #57 );
#14 = STYLED_ITEM( '', ( #58 ), #59 );
#15 = STYLED_ITEM( '', ( #60 ), #61 );
#16 = STYLED_ITEM( '', ( #62 ), #63 );
#17 = STYLED_ITEM( '', ( #64 ), #65 );
#18 = STYLED_ITEM( '', ( #66 ), #67 );
#19 = STYLED_ITEM( '', ( #68 ), #69 );
#20 = STYLED_ITEM( '', ( #70 ), #71 );
#21 = STYLED_ITEM( '', ( #72 ), #73 );
#22 = STYLED_ITEM( '', ( #74 ), #75 );
#23 = STYLED_ITEM( '', ( #76 ), #77 );
#24 = STYLED_ITEM( '', ( #78 ), #79 );
#25 = STYLED_ITEM( '', ( #80 ), #81 );
#26 = STYLED_ITEM( '', ( #82 ), #83 );
#27 = STYLED_ITEM( '', ( #84 ), #85 );
#28 = STYLED_ITEM( '', ( #86 ), #87 );
#29 = STYLED_ITEM( '', ( #88 ), #89 );
#30 = STYLED_ITEM( '', ( #90 ), #91 );
#31 = STYLED_ITEM( '', ( #92 ), #93 );
#32 = STYLED_ITEM( '', ( #94 ), #95 );
#33 = STYLED_ITEM( '', ( #96 ), #97 );
#34 = STYLED_ITEM( '', ( #98 ), #99 );
#35 = STYLED_ITEM( '', ( #100 ), #101 );
#36 = STYLED_ITEM( '', ( #102 ), #103 );
#37 = APPLICATION_CONTEXT( ' ' );
#38 = PRODUCT_CATEGORY( 'part', 'NONE' );
#39 = PRODUCT_RELATED_PRODUCT_CATEGORY( 'detail', ' ', ( #104 ) );
#40 = PRODUCT_DEFINITION_SHAPE( 'NONE', 'NONE', #105 );
#41 = ADVANCED_BREP_SHAPE_REPRESENTATION( '1', ( #81, #106 ), #6 );
#44 = UNCERTAINTY_MEASURE_WITH_UNIT( LENGTH_MEASURE( 1.00000000000000E-006 ), #46, '', '' );
#46 =  ( CONVERSION_BASED_UNIT( 'MILLIMETRE', #109 )LENGTH_UNIT(  )NAMED_UNIT( #112 ) );
#47 =  ( NAMED_UNIT( #114 )PLANE_ANGLE_UNIT(  )SI_UNIT( $, .RADIAN. ) );
#48 =  ( NAMED_UNIT( #114 )SOLID_ANGLE_UNIT(  )SI_UNIT( $, .STERADIAN. ) );
#50 = PRESENTATION_STYLE_ASSIGNMENT( ( #120 ) );
#51 = EDGE_CURVE( '', #83, #63, #121, .T. );
#52 = PRESENTATION_STYLE_ASSIGNMENT( ( #122 ) );
#53 = EDGE_CURVE( '', #87, #89, #123, .T. );
#54 = PRESENTATION_STYLE_ASSIGNMENT( ( #124 ) );
#55 = EDGE_CURVE( '', #95, #63, #125, .T. );
#56 = PRESENTATION_STYLE_ASSIGNMENT( ( #126 ) );
#57 = EDGE_CURVE( '', #67, #89, #127, .T. );
#58 = PRESENTATION_STYLE_ASSIGNMENT( ( #128 ) );
#59 = VERTEX_POINT( '', #129 );
#60 = PRESENTATION_STYLE_ASSIGNMENT( ( #130 ) );
#61 = EDGE_CURVE( '', #91, #67, #131, .T. );
#62 = PRESENTATION_STYLE_ASSIGNMENT( ( #132 ) );
#63 = VERTEX_POINT( '', #133 );
#64 = PRESENTATION_STYLE_ASSIGNMENT( ( #134 ) );
#65 = EDGE_CURVE( '', #67, #91, #135, .T. );
#66 = PRESENTATION_STYLE_ASSIGNMENT( ( #136 ) );
#67 = VERTEX_POINT( '', #137 );
#68 = PRESENTATION_STYLE_ASSIGNMENT( ( #138 ) );
#69 = EDGE_CURVE( '', #83, #59, #139, .T. );
#70 = PRESENTATION_STYLE_ASSIGNMENT( ( #140 ) );
#71 = ADVANCED_FACE( '', ( #141 ), #142, .F. );
#72 = PRESENTATION_STYLE_ASSIGNMENT( ( #143 ) );
#73 = EDGE_CURVE( '', #63, #83, #144, .T. );
#74 = PRESENTATION_STYLE_ASSIGNMENT( ( #145 ) );
#75 = ADVANCED_FACE( '', ( #146 ), #147, .T. );
#76 = PRESENTATION_STYLE_ASSIGNMENT( ( #148 ) );
#77 = ADVANCED_FACE( '', ( #149 ), #150, .T. );
#78 = PRESENTATION_STYLE_ASSIGNMENT( ( #151 ) );
#79 = ADVANCED_FACE( '', ( #152, #153 ), #154, .T. );
#80 = PRESENTATION_STYLE_ASSIGNMENT( ( #155 ) );
#81 = MANIFOLD_SOLID_BREP( '1', #156 );
#82 = PRESENTATION_STYLE_ASSIGNMENT( ( #157 ) );
#83 = VERTEX_POINT( '', #158 );
#84 = PRESENTATION_STYLE_ASSIGNMENT( ( #159 ) );
#85 = ADVANCED_FACE( '', ( #160, #161 ), #162, .F. );
#86 = PRESENTATION_STYLE_ASSIGNMENT( ( #163 ) );
#87 = VERTEX_POINT( '', #164 );
#88 = PRESENTATION_STYLE_ASSIGNMENT( ( #165 ) );
#89 = VERTEX_POINT( '', #166 );
#90 = PRESENTATION_STYLE_ASSIGNMENT( ( #167 ) );
#91 = VERTEX_POINT( '', #168 );
#92 = PRESENTATION_STYLE_ASSIGNMENT( ( #169 ) );
#93 = EDGE_CURVE( '', #95, #59, #170, .T. );
#94 = PRESENTATION_STYLE_ASSIGNMENT( ( #171 ) );
#95 = VERTEX_POINT( '', #172 );
#96 = PRESENTATION_STYLE_ASSIGNMENT( ( #173 ) );
#97 = ADVANCED_FACE( '', ( #174 ), #175, .F. );
#98 = PRESENTATION_STYLE_ASSIGNMENT( ( #176 ) );
#99 = EDGE_CURVE( '', #87, #91, #177, .T. );
#100 = PRESENTATION_STYLE_ASSIGNMENT( ( #178 ) );
#101 = EDGE_CURVE( '', #59, #95, #179, .T. );
#102 = PRESENTATION_STYLE_ASSIGNMENT( ( #180 ) );
#103 = EDGE_CURVE( '', #89, #87, #181, .T. );
#104 = PRODUCT( '1', '1', 'PART-1-DESC', ( #182 ) );
#105 = PRODUCT_DEFINITION( 'NONE', 'NONE', #183, #2 );
#106 = AXIS2_PLACEMENT_3D( '', #184, #185, #186 );
#109 = LENGTH_MEASURE_WITH_UNIT( LENGTH_MEASURE( 1.00000000000000 ), #187 );
#112 = DIMENSIONAL_EXPONENTS( 1.00000000000000, 0.000000000000000, 0.000000000000000, 0.000000000000000, 0.000000000000000, 0.000000000000000, 0.000000000000000 );
#114 = DIMENSIONAL_EXPONENTS( 0.000000000000000, 0.000000000000000, 0.000000000000000, 0.000000000000000, 0.000000000000000, 0.000000000000000, 0.000000000000000 );
#120 = CURVE_STYLE( '', #188, POSITIVE_LENGTH_MEASURE( 1.00000000000000E-006 ), #189 );
#121 = CIRCLE( '', #190, 112.500000000000 );
#122 = CURVE_STYLE( '', #191, POSITIVE_LENGTH_MEASURE( 1.00000000000000E-006 ), #192 );
#123 = CIRCLE( '', #193, 99.7000000000000 );
#124 = CURVE_STYLE( '', #194, POSITIVE_LENGTH_MEASURE( 1.00000000000000E-006 ), #195 );
#125 = LINE( '', #196, #197 );
#126 = CURVE_STYLE( '', #198, POSITIVE_LENGTH_MEASURE( 1.00000000000000E-006 ), #199 );
#127 = LINE( '', #200, #201 );
#128 = POINT_STYLE( ' ', #202, POSITIVE_LENGTH_MEASURE( 1.00000000000000E-006 ), #203 );
#129 = CARTESIAN_POINT( '', ( 5000.00000000000, 0.000000000000000, -112.500000000000 ) );
#130 = CURVE_STYLE( '', #204, POSITIVE_LENGTH_MEASURE( 1.00000000000000E-006 ), #205 );
#131 = CIRCLE( '', #206, 99.7000000000000 );
#132 = POINT_STYLE( ' ', #207, POSITIVE_LENGTH_MEASURE( 1.00000000000000E-006 ), #208 );
#133 = CARTESIAN_POINT( '', ( 0.000000000000000, 1.37768214805017E-014, 112.500000000000 ) );
#134 = CURVE_STYLE( '', #209, POSITIVE_LENGTH_MEASURE( 1.00000000000000E-006 ), #210 );
#135 = CIRCLE( '', #211, 99.7000000000000 );
#136 = POINT_STYLE( ' ', #212, POSITIVE_LENGTH_MEASURE( 1.00000000000000E-006 ), #213 );
#137 = CARTESIAN_POINT( '', ( 0.000000000000000, 0.000000000000000, -99.7000000000000 ) );
#138 = CURVE_STYLE( '', #214, POSITIVE_LENGTH_MEASURE( 1.00000000000000E-006 ), #215 );
#139 = LINE( '', #216, #217 );
#140 = SURFACE_STYLE_USAGE( .BOTH., #218 );
#141 = FACE_OUTER_BOUND( '', #219, .T. );
#142 = CYLINDRICAL_SURFACE( '', #220, 99.7000000000000 );
#143 = CURVE_STYLE( '', #221, POSITIVE_LENGTH_MEASURE( 1.00000000000000E-006 ), #222 );
#144 = CIRCLE( '', #223, 112.500000000000 );
#145 = SURFACE_STYLE_USAGE( .BOTH., #224 );
#146 = FACE_OUTER_BOUND( '', #225, .T. );
#147 = CYLINDRICAL_SURFACE( '', #226, 112.500000000000 );
#148 = SURFACE_STYLE_USAGE( .BOTH., #227 );
#149 = FACE_OUTER_BOUND( '', #228, .T. );
#150 = CYLINDRICAL_SURFACE( '', #229, 112.500000000000 );
#151 = SURFACE_STYLE_USAGE( .BOTH., #230 );
#152 = FACE_OUTER_BOUND( '', #231, .T. );
#153 = FACE_BOUND( '', #232, .T. );
#154 = PLANE( '', #233 );
#155 = SURFACE_STYLE_USAGE( .BOTH., #234 );
#156 = CLOSED_SHELL( '', ( #77, #71, #97, #75, #79, #85 ) );
#157 = POINT_STYLE( ' ', #235, POSITIVE_LENGTH_MEASURE( 1.00000000000000E-006 ), #236 );
#158 = CARTESIAN_POINT( '', ( 0.000000000000000, 0.000000000000000, -112.500000000000 ) );
#159 = SURFACE_STYLE_USAGE( .BOTH., #237 );
#160 = FACE_OUTER_BOUND( '', #238, .T. );
#161 = FACE_BOUND( '', #239, .T. );
#162 = PLANE( '', #240 );
#163 = POINT_STYLE( ' ', #241, POSITIVE_LENGTH_MEASURE( 1.00000000000000E-006 ), #242 );
#164 = CARTESIAN_POINT( '', ( 5000.00000000000, 1.22093253476091E-014, 99.7000000000000 ) );
#165 = POINT_STYLE( ' ', #243, POSITIVE_LENGTH_MEASURE( 1.00000000000000E-006 ), #244 );
#166 = CARTESIAN_POINT( '', ( 5000.00000000000, 0.000000000000000, -99.7000000000000 ) );
#167 = POINT_STYLE( ' ', #245, POSITIVE_LENGTH_MEASURE( 1.00000000000000E-006 ), #246 );
#168 = CARTESIAN_POINT( '', ( 0.000000000000000, 1.22093253476091E-014, 99.7000000000000 ) );
#169 = CURVE_STYLE( '', #247, POSITIVE_LENGTH_MEASURE( 1.00000000000000E-006 ), #248 );
#170 = CIRCLE( '', #249, 112.500000000000 );
#171 = POINT_STYLE( ' ', #250, POSITIVE_LENGTH_MEASURE( 1.00000000000000E-006 ), #251 );
#172 = CARTESIAN_POINT( '', ( 5000.00000000000, 1.37768214805017E-014, 112.500000000000 ) );
#173 = SURFACE_STYLE_USAGE( .BOTH., #252 );
#174 = FACE_OUTER_BOUND( '', #253, .T. );
#175 = CYLINDRICAL_SURFACE( '', #254, 99.7000000000000 );
#176 = CURVE_STYLE( '', #255, POSITIVE_LENGTH_MEASURE( 1.00000000000000E-006 ), #256 );
#177 = LINE( '', #257, #258 );
#178 = CURVE_STYLE( '', #259, POSITIVE_LENGTH_MEASURE( 1.00000000000000E-006 ), #260 );
#179 = CIRCLE( '', #261, 112.500000000000 );
#180 = CURVE_STYLE( '', #262, POSITIVE_LENGTH_MEASURE( 1.00000000000000E-006 ), #263 );
#181 = CIRCLE( '', #264, 99.7000000000000 );
#182 = PRODUCT_CONTEXT( '', #37, 'mechanical' );
#183 = PRODUCT_DEFINITION_FORMATION_WITH_SPECIFIED_SOURCE( ' ', 'NONE', #104, .NOT_KNOWN. );
#184 = CARTESIAN_POINT( '', ( 0.000000000000000, 0.000000000000000, 0.000000000000000 ) );
#185 = DIRECTION( '', ( 0.000000000000000, 0.000000000000000, 1.00000000000000 ) );
#186 = DIRECTION( '', ( 1.00000000000000, 0.000000000000000, 0.000000000000000 ) );
#187 =  ( NAMED_UNIT( #112 )LENGTH_UNIT(  )SI_UNIT( .MILLI., .METRE. ) );
#188 = DRAUGHTING_PRE_DEFINED_CURVE_FONT( 'continuous' );
#189 = COLOUR_RGB( '', 0.689999997615810, 0.689999997615810, 0.689999997615810 );
#190 = AXIS2_PLACEMENT_3D( '', #266, #267, #268 );
#191 = DRAUGHTING_PRE_DEFINED_CURVE_FONT( 'continuous' );
#192 = COLOUR_RGB( '', 0.689999997615810, 0.689999997615810, 0.689999997615810 );
#193 = AXIS2_PLACEMENT_3D( '', #269, #270, #271 );
#194 = DRAUGHTING_PRE_DEFINED_CURVE_FONT( 'continuous' );
#195 = COLOUR_RGB( '', 0.689999997615810, 0.689999997615810, 0.689999997615810 );
#196 = CARTESIAN_POINT( '', ( 0.000000000000000, 1.37768214805017E-014, 112.500000000000 ) );
#197 = VECTOR( '', #272, 1.00000000000000 );
#198 = DRAUGHTING_PRE_DEFINED_CURVE_FONT( 'continuous' );
#199 = COLOUR_RGB( '', 0.689999997615810, 0.689999997615810, 0.689999997615810 );
#200 = CARTESIAN_POINT( '', ( 0.000000000000000, -1.22093253476091E-014, -99.7000000000000 ) );
#201 = VECTOR( '', #273, 1.00000000000000 );
#202 = PRE_DEFINED_MARKER( '' );
#203 = COLOUR_RGB( '', 0.689999997615810, 0.689999997615810, 0.689999997615810 );
#204 = DRAUGHTING_PRE_DEFINED_CURVE_FONT( 'continuous' );
#205 = COLOUR_RGB( '', 0.689999997615810, 0.689999997615810, 0.689999997615810 );
#206 = AXIS2_PLACEMENT_3D( '', #274, #275, #276 );
#207 = PRE_DEFINED_MARKER( '' );
#208 = COLOUR_RGB( '', 0.689999997615810, 0.689999997615810, 0.689999997615810 );
#209 = DRAUGHTING_PRE_DEFINED_CURVE_FONT( 'continuous' );
#210 = COLOUR_RGB( '', 0.689999997615810, 0.689999997615810, 0.689999997615810 );
#211 = AXIS2_PLACEMENT_3D( '', #277, #278, #279 );
#212 = PRE_DEFINED_MARKER( '' );
#213 = COLOUR_RGB( '', 0.689999997615810, 0.689999997615810, 0.689999997615810 );
#214 = DRAUGHTING_PRE_DEFINED_CURVE_FONT( 'continuous' );
#215 = COLOUR_RGB( '', 0.689999997615810, 0.689999997615810, 0.689999997615810 );
#216 = CARTESIAN_POINT( '', ( 0.000000000000000, -1.37768214805017E-014, -112.500000000000 ) );
#217 = VECTOR( '', #280, 1.00000000000000 );
#218 = SURFACE_SIDE_STYLE( '', ( #281 ) );
#219 = EDGE_LOOP( '', ( #282, #283, #284, #285 ) );
#220 = AXIS2_PLACEMENT_3D( '', #286, #287, #288 );
#221 = DRAUGHTING_PRE_DEFINED_CURVE_FONT( 'continuous' );
#222 = COLOUR_RGB( '', 0.689999997615810, 0.689999997615810, 0.689999997615810 );
#223 = AXIS2_PLACEMENT_3D( '', #289, #290, #291 );
#224 = SURFACE_SIDE_STYLE( '', ( #292 ) );
#225 = EDGE_LOOP( '', ( #293, #294, #295, #296 ) );
#226 = AXIS2_PLACEMENT_3D( '', #297, #298, #299 );
#227 = SURFACE_SIDE_STYLE( '', ( #300 ) );
#228 = EDGE_LOOP( '', ( #301, #302, #303, #304 ) );
#229 = AXIS2_PLACEMENT_3D( '', #305, #306, #307 );
#230 = SURFACE_SIDE_STYLE( '', ( #308 ) );
#231 = EDGE_LOOP( '', ( #309, #310 ) );
#232 = EDGE_LOOP( '', ( #311, #312 ) );
#233 = AXIS2_PLACEMENT_3D( '', #313, #314, #315 );
#234 = SURFACE_SIDE_STYLE( '', ( #316 ) );
#235 = PRE_DEFINED_MARKER( '' );
#236 = COLOUR_RGB( '', 0.689999997615810, 0.689999997615810, 0.689999997615810 );
#237 = SURFACE_SIDE_STYLE( '', ( #317 ) );
#238 = EDGE_LOOP( '', ( #318, #319 ) );
#239 = EDGE_LOOP( '', ( #320, #321 ) );
#240 = AXIS2_PLACEMENT_3D( '', #322, #323, #324 );
#241 = PRE_DEFINED_MARKER( '' );
#242 = COLOUR_RGB( '', 0.689999997615810, 0.689999997615810, 0.689999997615810 );
#243 = PRE_DEFINED_MARKER( '' );
#244 = COLOUR_RGB( '', 0.689999997615810, 0.689999997615810, 0.689999997615810 );
#245 = PRE_DEFINED_MARKER( '' );
#246 = COLOUR_RGB( '', 0.689999997615810, 0.689999997615810, 0.689999997615810 );
#247 = DRAUGHTING_PRE_DEFINED_CURVE_FONT( 'continuous' );
#248 = COLOUR_RGB( '', 0.689999997615810, 0.689999997615810, 0.689999997615810 );
#249 = AXIS2_PLACEMENT_3D( '', #325, #326, #327 );
#250 = PRE_DEFINED_MARKER( '' );
#251 = COLOUR_RGB( '', 0.689999997615810, 0.689999997615810, 0.689999997615810 );
#252 = SURFACE_SIDE_STYLE( '', ( #328 ) );
#253 = EDGE_LOOP( '', ( #329, #330, #331, #332 ) );
#254 = AXIS2_PLACEMENT_3D( '', #333, #334, #335 );
#255 = DRAUGHTING_PRE_DEFINED_CURVE_FONT( 'continuous' );
#256 = COLOUR_RGB( '', 0.689999997615810, 0.689999997615810, 0.689999997615810 );
#257 = CARTESIAN_POINT( '', ( 0.000000000000000, 1.22093253476091E-014, 99.7000000000000 ) );
#258 = VECTOR( '', #336, 1.00000000000000 );
#259 = DRAUGHTING_PRE_DEFINED_CURVE_FONT( 'continuous' );
#260 = COLOUR_RGB( '', 0.689999997615810, 0.689999997615810, 0.689999997615810 );
#261 = AXIS2_PLACEMENT_3D( '', #337, #338, #339 );
#262 = DRAUGHTING_PRE_DEFINED_CURVE_FONT( 'continuous' );
#263 = COLOUR_RGB( '', 0.689999997615810, 0.689999997615810, 0.689999997615810 );
#264 = AXIS2_PLACEMENT_3D( '', #340, #341, #342 );
#266 = CARTESIAN_POINT( '', ( 0.000000000000000, 0.000000000000000, 0.000000000000000 ) );
#267 = DIRECTION( '', ( 1.00000000000000, -0.000000000000000, 0.000000000000000 ) );
#268 = DIRECTION( '', ( 0.000000000000000, 0.000000000000000, -1.00000000000000 ) );
#269 = CARTESIAN_POINT( '', ( 5000.00000000000, 0.000000000000000, 0.000000000000000 ) );
#270 = DIRECTION( '', ( 1.00000000000000, 0.000000000000000, 0.000000000000000 ) );
#271 = DIRECTION( '', ( 0.000000000000000, 0.000000000000000, -1.00000000000000 ) );
#272 = DIRECTION( '', ( -1.00000000000000, -0.000000000000000, -0.000000000000000 ) );
#273 = DIRECTION( '', ( 1.00000000000000, 0.000000000000000, 0.000000000000000 ) );
#274 = CARTESIAN_POINT( '', ( 0.000000000000000, 0.000000000000000, 0.000000000000000 ) );
#275 = DIRECTION( '', ( 1.00000000000000, -0.000000000000000, 0.000000000000000 ) );
#276 = DIRECTION( '', ( 0.000000000000000, 0.000000000000000, -1.00000000000000 ) );
#277 = CARTESIAN_POINT( '', ( 0.000000000000000, 0.000000000000000, 0.000000000000000 ) );
#278 = DIRECTION( '', ( 1.00000000000000, -0.000000000000000, 0.000000000000000 ) );
#279 = DIRECTION( '', ( 0.000000000000000, 0.000000000000000, -1.00000000000000 ) );
#280 = DIRECTION( '', ( 1.00000000000000, 0.000000000000000, 0.000000000000000 ) );
#281 = SURFACE_STYLE_FILL_AREA( #343 );
#282 = ORIENTED_EDGE( '', *, *, #57, .F. );
#283 = ORIENTED_EDGE( '', *, *, #61, .F. );
#284 = ORIENTED_EDGE( '', *, *, #99, .F. );
#285 = ORIENTED_EDGE( '', *, *, #53, .T. );
#286 = CARTESIAN_POINT( '', ( 0.000000000000000, 0.000000000000000, 0.000000000000000 ) );
#287 = DIRECTION( '', ( -1.00000000000000, -0.000000000000000, -0.000000000000000 ) );
#288 = DIRECTION( '', ( 0.000000000000000, 0.000000000000000, -1.00000000000000 ) );
#289 = CARTESIAN_POINT( '', ( 0.000000000000000, 0.000000000000000, 0.000000000000000 ) );
#290 = DIRECTION( '', ( 1.00000000000000, -0.000000000000000, 0.000000000000000 ) );
#291 = DIRECTION( '', ( 0.000000000000000, 0.000000000000000, -1.00000000000000 ) );
#292 = SURFACE_STYLE_FILL_AREA( #344 );
#293 = ORIENTED_EDGE( '', *, *, #69, .T. );
#294 = ORIENTED_EDGE( '', *, *, #101, .T. );
#295 = ORIENTED_EDGE( '', *, *, #55, .T. );
#296 = ORIENTED_EDGE( '', *, *, #73, .T. );
#297 = CARTESIAN_POINT( '', ( 0.000000000000000, 0.000000000000000, 0.000000000000000 ) );
#298 = DIRECTION( '', ( -1.00000000000000, -0.000000000000000, -0.000000000000000 ) );
#299 = DIRECTION( '', ( 0.000000000000000, 0.000000000000000, -1.00000000000000 ) );
#300 = SURFACE_STYLE_FILL_AREA( #345 );
#301 = ORIENTED_EDGE( '', *, *, #69, .F. );
#302 = ORIENTED_EDGE( '', *, *, #51, .T. );
#303 = ORIENTED_EDGE( '', *, *, #55, .F. );
#304 = ORIENTED_EDGE( '', *, *, #93, .T. );
#305 = CARTESIAN_POINT( '', ( 0.000000000000000, 0.000000000000000, 0.000000000000000 ) );
#306 = DIRECTION( '', ( -1.00000000000000, -0.000000000000000, -0.000000000000000 ) );
#307 = DIRECTION( '', ( 0.000000000000000, 0.000000000000000, -1.00000000000000 ) );
#308 = SURFACE_STYLE_FILL_AREA( #346 );
#309 = ORIENTED_EDGE( '', *, *, #101, .F. );
#310 = ORIENTED_EDGE( '', *, *, #93, .F. );
#311 = ORIENTED_EDGE( '', *, *, #103, .F. );
#312 = ORIENTED_EDGE( '', *, *, #53, .F. );
#313 = CARTESIAN_POINT( '', ( 5000.00000000000, 0.000000000000000, 0.000000000000000 ) );
#314 = DIRECTION( '', ( 1.00000000000000, 0.000000000000000, 0.000000000000000 ) );
#315 = DIRECTION( '', ( 0.000000000000000, 0.000000000000000, -1.00000000000000 ) );
#316 = SURFACE_STYLE_FILL_AREA( #347 );
#317 = SURFACE_STYLE_FILL_AREA( #348 );
#318 = ORIENTED_EDGE( '', *, *, #51, .F. );
#319 = ORIENTED_EDGE( '', *, *, #73, .F. );
#320 = ORIENTED_EDGE( '', *, *, #65, .T. );
#321 = ORIENTED_EDGE( '', *, *, #61, .T. );
#322 = CARTESIAN_POINT( '', ( 0.000000000000000, 0.000000000000000, 0.000000000000000 ) );
#323 = DIRECTION( '', ( 1.00000000000000, 0.000000000000000, 0.000000000000000 ) );
#324 = DIRECTION( '', ( 0.000000000000000, 0.000000000000000, -1.00000000000000 ) );
#325 = CARTESIAN_POINT( '', ( 5000.00000000000, 0.000000000000000, 0.000000000000000 ) );
#326 = DIRECTION( '', ( -1.00000000000000, 0.000000000000000, 0.000000000000000 ) );
#327 = DIRECTION( '', ( 0.000000000000000, 0.000000000000000, -1.00000000000000 ) );
#328 = SURFACE_STYLE_FILL_AREA( #349 );
#329 = ORIENTED_EDGE( '', *, *, #57, .T. );
#330 = ORIENTED_EDGE( '', *, *, #103, .T. );
#331 = ORIENTED_EDGE( '', *, *, #99, .T. );
#332 = ORIENTED_EDGE( '', *, *, #65, .F. );
#333 = CARTESIAN_POINT( '', ( 0.000000000000000, 0.000000000000000, 0.000000000000000 ) );
#334 = DIRECTION( '', ( -1.00000000000000, -0.000000000000000, -0.000000000000000 ) );
#335 = DIRECTION( '', ( 0.000000000000000, 0.000000000000000, -1.00000000000000 ) );
#336 = DIRECTION( '', ( -1.00000000000000, 0.000000000000000, 0.000000000000000 ) );
#337 = CARTESIAN_POINT( '', ( 5000.00000000000, 0.000000000000000, 0.000000000000000 ) );
#338 = DIRECTION( '', ( -1.00000000000000, 0.000000000000000, 0.000000000000000 ) );
#339 = DIRECTION( '', ( 0.000000000000000, 0.000000000000000, -1.00000000000000 ) );
#340 = CARTESIAN_POINT( '', ( 5000.00000000000, 0.000000000000000, 0.000000000000000 ) );
#341 = DIRECTION( '', ( 1.00000000000000, 0.000000000000000, 0.000000000000000 ) );
#342 = DIRECTION( '', ( 0.000000000000000, 0.000000000000000, -1.00000000000000 ) );
#343 = FILL_AREA_STYLE( '', ( #350 ) );
#344 = FILL_AREA_STYLE( '', ( #351 ) );
#345 = FILL_AREA_STYLE( '', ( #352 ) );
#346 = FILL_AREA_STYLE( '', ( #353 ) );
#347 = FILL_AREA_STYLE( '', ( #354 ) );
#348 = FILL_AREA_STYLE( '', ( #355 ) );
#349 = FILL_AREA_STYLE( '', ( #356 ) );
#350 = FILL_AREA_STYLE_COLOUR( '', #357 );
#351 = FILL_AREA_STYLE_COLOUR( '', #358 );
#352 = FILL_AREA_STYLE_COLOUR( '', #359 );
#353 = FILL_AREA_STYLE_COLOUR( '', #360 );
#354 = FILL_AREA_STYLE_COLOUR( '', #361 );
#355 = FILL_AREA_STYLE_COLOUR( '', #362 );
#356 = FILL_AREA_STYLE_COLOUR( '', #363 );
#357 = COLOUR_RGB( '', 0.689999997615810, 0.689999997615810, 0.689999997615810 );
#358 = COLOUR_RGB( '', 0.689999997615810, 0.689999997615810, 0.689999997615810 );
#359 = COLOUR_RGB( '', 0.689999997615810, 0.689999997615810, 0.689999997615810 );
#360 = COLOUR_RGB( '', 0.689999997615810, 0.689999997615810, 0.689999997615810 );
#361 = COLOUR_RGB( '', 0.689999997615810, 0.689999997615810, 0.689999997615810 );
#362 = COLOUR_RGB( '', 0.689999997615810, 0.689999997615810, 0.689999997615810 );
#363 = COLOUR_RGB( '', 0.689999997615810, 0.689999997615810, 0.689999997615810 );
ENDSEC;
END-ISO-10303-21;
