ISO-10303-21;
HEADER;
FILE_DESCRIPTION( ( '' ), '1' );
FILE_NAME( '//se01002/users/anro/AGRU_12705040017_PPH_grau_Rohr__5m_400X22_7__SDR17_6__ISO_S-8_3_10.stp', '2018-02-07T07:41:51', ( '' ), ( '' ), ' ', ' ', ' ' );
FILE_SCHEMA( ( 'automotive_design' ) );
ENDSEC;
DATA;
#1 = MECHANICAL_DESIGN_GEOMETRIC_PRESENTATION_REPRESENTATION( ' ', ( #10, #11, #12, #13, #14, #15, #16, #17, #18, #19, #20, #21, #22, #23, #24, #25, #26, #27, #28, #29, #30, #31, #32, #33, #34, #35, #36 ), #6 );
#2 = PRODUCT_DEFINITION_CONTEXT( '', #37, 'design' );
#3 = APPLICATION_PROTOCOL_DEFINITION( 'INTERNATIONAL STANDARD', 'automotive_design', 1994, #37 );
#4 = PRODUCT_CATEGORY_RELATIONSHIP( 'NONE', 'NONE', #38, #39 );
#5 = SHAPE_DEFINITION_REPRESENTATION( #40, #41 );
#6 =  ( GEOMETRIC_REPRESENTATION_CONTEXT( 3 )GLOBAL_UNCERTAINTY_ASSIGNED_CONTEXT( ( #44 ) )GLOBAL_UNIT_ASSIGNED_CONTEXT( ( #46, #47, #48 ) )REPRESENTATION_CONTEXT( 'NONE', 'WORKSPACE' ) );
#10 = STYLED_ITEM( '', ( #50 ), #51 );
#11 = STYLED_ITEM( '', ( #52 ), #53 );
#12 = STYLED_ITEM( '', ( #54 ), #55 );
#13 = STYLED_ITEM( '', ( #56 ), #57 );
#14 = STYLED_ITEM( '', ( #58 ), #59 );
#15 = STYLED_ITEM( '', ( #60 ), #61 );
#16 = STYLED_ITEM( '', ( #62 ), #63 );
#17 = STYLED_ITEM( '', ( #64 ), #65 );
#18 = STYLED_ITEM( '', ( #66 ), #67 );
#19 = STYLED_ITEM( '', ( #68 ), #69 );
#20 = STYLED_ITEM( '', ( #70 ), #71 );
#21 = STYLED_ITEM( '', ( #72 ), #73 );
#22 = STYLED_ITEM( '', ( #74 ), #75 );
#23 = STYLED_ITEM( '', ( #76 ), #77 );
#24 = STYLED_ITEM( '', ( #78 ), #79 );
#25 = STYLED_ITEM( '', ( #80 ), #81 );
#26 = STYLED_ITEM( '', ( #82 ), #83 );
#27 = STYLED_ITEM( '', ( #84 ), #85 );
#28 = STYLED_ITEM( '', ( #86 ), #87 );
#29 = STYLED_ITEM( '', ( #88 ), #89 );
#30 = STYLED_ITEM( '', ( #90 ), #91 );
#31 = STYLED_ITEM( '', ( #92 ), #93 );
#32 = STYLED_ITEM( '', ( #94 ), #95 );
#33 = STYLED_ITEM( '', ( #96 ), #97 );
#34 = STYLED_ITEM( '', ( #98 ), #99 );
#35 = STYLED_ITEM( '', ( #100 ), #101 );
#36 = STYLED_ITEM( '', ( #102 ), #103 );
#37 = APPLICATION_CONTEXT( ' ' );
#38 = PRODUCT_CATEGORY( 'part', 'NONE' );
#39 = PRODUCT_RELATED_PRODUCT_CATEGORY( 'detail', ' ', ( #104 ) );
#40 = PRODUCT_DEFINITION_SHAPE( 'NONE', 'NONE', #105 );
#41 = ADVANCED_BREP_SHAPE_REPRESENTATION( '1', ( #57, #106 ), #6 );
#44 = UNCERTAINTY_MEASURE_WITH_UNIT( LENGTH_MEASURE( 1.00000000000000E-006 ), #46, '', '' );
#46 =  ( CONVERSION_BASED_UNIT( 'MILLIMETRE', #109 )LENGTH_UNIT(  )NAMED_UNIT( #112 ) );
#47 =  ( NAMED_UNIT( #114 )PLANE_ANGLE_UNIT(  )SI_UNIT( $, .RADIAN. ) );
#48 =  ( NAMED_UNIT( #114 )SOLID_ANGLE_UNIT(  )SI_UNIT( $, .STERADIAN. ) );
#50 = PRESENTATION_STYLE_ASSIGNMENT( ( #120 ) );
#51 = ADVANCED_FACE( '', ( #121, #122 ), #123, .F. );
#52 = PRESENTATION_STYLE_ASSIGNMENT( ( #124 ) );
#53 = EDGE_CURVE( '', #61, #77, #125, .T. );
#54 = PRESENTATION_STYLE_ASSIGNMENT( ( #126 ) );
#55 = EDGE_CURVE( '', #77, #61, #127, .T. );
#56 = PRESENTATION_STYLE_ASSIGNMENT( ( #128 ) );
#57 = MANIFOLD_SOLID_BREP( '1', #129 );
#58 = PRESENTATION_STYLE_ASSIGNMENT( ( #130 ) );
#59 = ADVANCED_FACE( '', ( #131 ), #132, .T. );
#60 = PRESENTATION_STYLE_ASSIGNMENT( ( #133 ) );
#61 = VERTEX_POINT( '', #134 );
#62 = PRESENTATION_STYLE_ASSIGNMENT( ( #135 ) );
#63 = EDGE_CURVE( '', #71, #85, #136, .T. );
#64 = PRESENTATION_STYLE_ASSIGNMENT( ( #137 ) );
#65 = VERTEX_POINT( '', #138 );
#66 = PRESENTATION_STYLE_ASSIGNMENT( ( #139 ) );
#67 = EDGE_CURVE( '', #81, #69, #140, .T. );
#68 = PRESENTATION_STYLE_ASSIGNMENT( ( #141 ) );
#69 = VERTEX_POINT( '', #142 );
#70 = PRESENTATION_STYLE_ASSIGNMENT( ( #143 ) );
#71 = VERTEX_POINT( '', #144 );
#72 = PRESENTATION_STYLE_ASSIGNMENT( ( #145 ) );
#73 = ADVANCED_FACE( '', ( #146 ), #147, .F. );
#74 = PRESENTATION_STYLE_ASSIGNMENT( ( #148 ) );
#75 = EDGE_CURVE( '', #81, #65, #149, .T. );
#76 = PRESENTATION_STYLE_ASSIGNMENT( ( #150 ) );
#77 = VERTEX_POINT( '', #151 );
#78 = PRESENTATION_STYLE_ASSIGNMENT( ( #152 ) );
#79 = VERTEX_POINT( '', #153 );
#80 = PRESENTATION_STYLE_ASSIGNMENT( ( #154 ) );
#81 = VERTEX_POINT( '', #155 );
#82 = PRESENTATION_STYLE_ASSIGNMENT( ( #156 ) );
#83 = EDGE_CURVE( '', #79, #65, #157, .T. );
#84 = PRESENTATION_STYLE_ASSIGNMENT( ( #158 ) );
#85 = VERTEX_POINT( '', #159 );
#86 = PRESENTATION_STYLE_ASSIGNMENT( ( #160 ) );
#87 = ADVANCED_FACE( '', ( #161, #162 ), #163, .T. );
#88 = PRESENTATION_STYLE_ASSIGNMENT( ( #164 ) );
#89 = EDGE_CURVE( '', #85, #71, #165, .T. );
#90 = PRESENTATION_STYLE_ASSIGNMENT( ( #166 ) );
#91 = ADVANCED_FACE( '', ( #167 ), #168, .F. );
#92 = PRESENTATION_STYLE_ASSIGNMENT( ( #169 ) );
#93 = EDGE_CURVE( '', #65, #79, #170, .T. );
#94 = PRESENTATION_STYLE_ASSIGNMENT( ( #171 ) );
#95 = EDGE_CURVE( '', #69, #81, #172, .T. );
#96 = PRESENTATION_STYLE_ASSIGNMENT( ( #173 ) );
#97 = EDGE_CURVE( '', #79, #69, #174, .T. );
#98 = PRESENTATION_STYLE_ASSIGNMENT( ( #175 ) );
#99 = EDGE_CURVE( '', #61, #71, #176, .T. );
#100 = PRESENTATION_STYLE_ASSIGNMENT( ( #177 ) );
#101 = EDGE_CURVE( '', #85, #77, #178, .T. );
#102 = PRESENTATION_STYLE_ASSIGNMENT( ( #179 ) );
#103 = ADVANCED_FACE( '', ( #180 ), #181, .T. );
#104 = PRODUCT( '1', '1', 'PART-1-DESC', ( #182 ) );
#105 = PRODUCT_DEFINITION( 'NONE', 'NONE', #183, #2 );
#106 = AXIS2_PLACEMENT_3D( '', #184, #185, #186 );
#109 = LENGTH_MEASURE_WITH_UNIT( LENGTH_MEASURE( 1.00000000000000 ), #187 );
#112 = DIMENSIONAL_EXPONENTS( 1.00000000000000, 0.000000000000000, 0.000000000000000, 0.000000000000000, 0.000000000000000, 0.000000000000000, 0.000000000000000 );
#114 = DIMENSIONAL_EXPONENTS( 0.000000000000000, 0.000000000000000, 0.000000000000000, 0.000000000000000, 0.000000000000000, 0.000000000000000, 0.000000000000000 );
#120 = SURFACE_STYLE_USAGE( .BOTH., #188 );
#121 = FACE_OUTER_BOUND( '', #189, .T. );
#122 = FACE_BOUND( '', #190, .T. );
#123 = PLANE( '', #191 );
#124 = CURVE_STYLE( '', #192, POSITIVE_LENGTH_MEASURE( 1.00000000000000E-006 ), #193 );
#125 = CIRCLE( '', #194, 200.000000000000 );
#126 = CURVE_STYLE( '', #195, POSITIVE_LENGTH_MEASURE( 1.00000000000000E-006 ), #196 );
#127 = CIRCLE( '', #197, 200.000000000000 );
#128 = SURFACE_STYLE_USAGE( .BOTH., #198 );
#129 = CLOSED_SHELL( '', ( #103, #73, #91, #59, #87, #51 ) );
#130 = SURFACE_STYLE_USAGE( .BOTH., #199 );
#131 = FACE_OUTER_BOUND( '', #200, .T. );
#132 = CYLINDRICAL_SURFACE( '', #201, 200.000000000000 );
#133 = POINT_STYLE( ' ', #202, POSITIVE_LENGTH_MEASURE( 1.00000000000000E-006 ), #203 );
#134 = CARTESIAN_POINT( '', ( 0.000000000000000, 0.000000000000000, -200.000000000000 ) );
#135 = CURVE_STYLE( '', #204, POSITIVE_LENGTH_MEASURE( 1.00000000000000E-006 ), #205 );
#136 = CIRCLE( '', #206, 200.000000000000 );
#137 = POINT_STYLE( ' ', #207, POSITIVE_LENGTH_MEASURE( 1.00000000000000E-006 ), #208 );
#138 = CARTESIAN_POINT( '', ( 0.000000000000000, 2.17122706532707E-014, 177.300000000000 ) );
#139 = CURVE_STYLE( '', #209, POSITIVE_LENGTH_MEASURE( 1.00000000000000E-006 ), #210 );
#140 = CIRCLE( '', #211, 177.300000000000 );
#141 = POINT_STYLE( ' ', #212, POSITIVE_LENGTH_MEASURE( 1.00000000000000E-006 ), #213 );
#142 = CARTESIAN_POINT( '', ( 5000.00000000000, 0.000000000000000, -177.300000000000 ) );
#143 = POINT_STYLE( ' ', #214, POSITIVE_LENGTH_MEASURE( 1.00000000000000E-006 ), #215 );
#144 = CARTESIAN_POINT( '', ( 5000.00000000000, 0.000000000000000, -200.000000000000 ) );
#145 = SURFACE_STYLE_USAGE( .BOTH., #216 );
#146 = FACE_OUTER_BOUND( '', #217, .T. );
#147 = CYLINDRICAL_SURFACE( '', #218, 177.300000000000 );
#148 = CURVE_STYLE( '', #219, POSITIVE_LENGTH_MEASURE( 1.00000000000000E-006 ), #220 );
#149 = LINE( '', #221, #222 );
#150 = POINT_STYLE( ' ', #223, POSITIVE_LENGTH_MEASURE( 1.00000000000000E-006 ), #224 );
#151 = CARTESIAN_POINT( '', ( 0.000000000000000, 2.44921270764475E-014, 200.000000000000 ) );
#152 = POINT_STYLE( ' ', #225, POSITIVE_LENGTH_MEASURE( 1.00000000000000E-006 ), #226 );
#153 = CARTESIAN_POINT( '', ( 0.000000000000000, 0.000000000000000, -177.300000000000 ) );
#154 = POINT_STYLE( ' ', #227, POSITIVE_LENGTH_MEASURE( 1.00000000000000E-006 ), #228 );
#155 = CARTESIAN_POINT( '', ( 5000.00000000000, 2.17122706532707E-014, 177.300000000000 ) );
#156 = CURVE_STYLE( '', #229, POSITIVE_LENGTH_MEASURE( 1.00000000000000E-006 ), #230 );
#157 = CIRCLE( '', #231, 177.300000000000 );
#158 = POINT_STYLE( ' ', #232, POSITIVE_LENGTH_MEASURE( 1.00000000000000E-006 ), #233 );
#159 = CARTESIAN_POINT( '', ( 5000.00000000000, 2.44921270764475E-014, 200.000000000000 ) );
#160 = SURFACE_STYLE_USAGE( .BOTH., #234 );
#161 = FACE_OUTER_BOUND( '', #235, .T. );
#162 = FACE_BOUND( '', #236, .T. );
#163 = PLANE( '', #237 );
#164 = CURVE_STYLE( '', #238, POSITIVE_LENGTH_MEASURE( 1.00000000000000E-006 ), #239 );
#165 = CIRCLE( '', #240, 200.000000000000 );
#166 = SURFACE_STYLE_USAGE( .BOTH., #241 );
#167 = FACE_OUTER_BOUND( '', #242, .T. );
#168 = CYLINDRICAL_SURFACE( '', #243, 177.300000000000 );
#169 = CURVE_STYLE( '', #244, POSITIVE_LENGTH_MEASURE( 1.00000000000000E-006 ), #245 );
#170 = CIRCLE( '', #246, 177.300000000000 );
#171 = CURVE_STYLE( '', #247, POSITIVE_LENGTH_MEASURE( 1.00000000000000E-006 ), #248 );
#172 = CIRCLE( '', #249, 177.300000000000 );
#173 = CURVE_STYLE( '', #250, POSITIVE_LENGTH_MEASURE( 1.00000000000000E-006 ), #251 );
#174 = LINE( '', #252, #253 );
#175 = CURVE_STYLE( '', #254, POSITIVE_LENGTH_MEASURE( 1.00000000000000E-006 ), #255 );
#176 = LINE( '', #256, #257 );
#177 = CURVE_STYLE( '', #258, POSITIVE_LENGTH_MEASURE( 1.00000000000000E-006 ), #259 );
#178 = LINE( '', #260, #261 );
#179 = SURFACE_STYLE_USAGE( .BOTH., #262 );
#180 = FACE_OUTER_BOUND( '', #263, .T. );
#181 = CYLINDRICAL_SURFACE( '', #264, 200.000000000000 );
#182 = PRODUCT_CONTEXT( '', #37, 'mechanical' );
#183 = PRODUCT_DEFINITION_FORMATION_WITH_SPECIFIED_SOURCE( ' ', 'NONE', #104, .NOT_KNOWN. );
#184 = CARTESIAN_POINT( '', ( 0.000000000000000, 0.000000000000000, 0.000000000000000 ) );
#185 = DIRECTION( '', ( 0.000000000000000, 0.000000000000000, 1.00000000000000 ) );
#186 = DIRECTION( '', ( 1.00000000000000, 0.000000000000000, 0.000000000000000 ) );
#187 =  ( NAMED_UNIT( #112 )LENGTH_UNIT(  )SI_UNIT( .MILLI., .METRE. ) );
#188 = SURFACE_SIDE_STYLE( '', ( #266 ) );
#189 = EDGE_LOOP( '', ( #267, #268 ) );
#190 = EDGE_LOOP( '', ( #269, #270 ) );
#191 = AXIS2_PLACEMENT_3D( '', #271, #272, #273 );
#192 = DRAUGHTING_PRE_DEFINED_CURVE_FONT( 'continuous' );
#193 = COLOUR_RGB( '', 0.689999997615810, 0.689999997615810, 0.689999997615810 );
#194 = AXIS2_PLACEMENT_3D( '', #274, #275, #276 );
#195 = DRAUGHTING_PRE_DEFINED_CURVE_FONT( 'continuous' );
#196 = COLOUR_RGB( '', 0.689999997615810, 0.689999997615810, 0.689999997615810 );
#197 = AXIS2_PLACEMENT_3D( '', #277, #278, #279 );
#198 = SURFACE_SIDE_STYLE( '', ( #280 ) );
#199 = SURFACE_SIDE_STYLE( '', ( #281 ) );
#200 = EDGE_LOOP( '', ( #282, #283, #284, #285 ) );
#201 = AXIS2_PLACEMENT_3D( '', #286, #287, #288 );
#202 = PRE_DEFINED_MARKER( '' );
#203 = COLOUR_RGB( '', 0.689999997615810, 0.689999997615810, 0.689999997615810 );
#204 = DRAUGHTING_PRE_DEFINED_CURVE_FONT( 'continuous' );
#205 = COLOUR_RGB( '', 0.689999997615810, 0.689999997615810, 0.689999997615810 );
#206 = AXIS2_PLACEMENT_3D( '', #289, #290, #291 );
#207 = PRE_DEFINED_MARKER( '' );
#208 = COLOUR_RGB( '', 0.689999997615810, 0.689999997615810, 0.689999997615810 );
#209 = DRAUGHTING_PRE_DEFINED_CURVE_FONT( 'continuous' );
#210 = COLOUR_RGB( '', 0.689999997615810, 0.689999997615810, 0.689999997615810 );
#211 = AXIS2_PLACEMENT_3D( '', #292, #293, #294 );
#212 = PRE_DEFINED_MARKER( '' );
#213 = COLOUR_RGB( '', 0.689999997615810, 0.689999997615810, 0.689999997615810 );
#214 = PRE_DEFINED_MARKER( '' );
#215 = COLOUR_RGB( '', 0.689999997615810, 0.689999997615810, 0.689999997615810 );
#216 = SURFACE_SIDE_STYLE( '', ( #295 ) );
#217 = EDGE_LOOP( '', ( #296, #297, #298, #299 ) );
#218 = AXIS2_PLACEMENT_3D( '', #300, #301, #302 );
#219 = DRAUGHTING_PRE_DEFINED_CURVE_FONT( 'continuous' );
#220 = COLOUR_RGB( '', 0.689999997615810, 0.689999997615810, 0.689999997615810 );
#221 = CARTESIAN_POINT( '', ( 0.000000000000000, 2.17122706532707E-014, 177.300000000000 ) );
#222 = VECTOR( '', #303, 1.00000000000000 );
#223 = PRE_DEFINED_MARKER( '' );
#224 = COLOUR_RGB( '', 0.689999997615810, 0.689999997615810, 0.689999997615810 );
#225 = PRE_DEFINED_MARKER( '' );
#226 = COLOUR_RGB( '', 0.689999997615810, 0.689999997615810, 0.689999997615810 );
#227 = PRE_DEFINED_MARKER( '' );
#228 = COLOUR_RGB( '', 0.689999997615810, 0.689999997615810, 0.689999997615810 );
#229 = DRAUGHTING_PRE_DEFINED_CURVE_FONT( 'continuous' );
#230 = COLOUR_RGB( '', 0.689999997615810, 0.689999997615810, 0.689999997615810 );
#231 = AXIS2_PLACEMENT_3D( '', #304, #305, #306 );
#232 = PRE_DEFINED_MARKER( '' );
#233 = COLOUR_RGB( '', 0.689999997615810, 0.689999997615810, 0.689999997615810 );
#234 = SURFACE_SIDE_STYLE( '', ( #307 ) );
#235 = EDGE_LOOP( '', ( #308, #309 ) );
#236 = EDGE_LOOP( '', ( #310, #311 ) );
#237 = AXIS2_PLACEMENT_3D( '', #312, #313, #314 );
#238 = DRAUGHTING_PRE_DEFINED_CURVE_FONT( 'continuous' );
#239 = COLOUR_RGB( '', 0.689999997615810, 0.689999997615810, 0.689999997615810 );
#240 = AXIS2_PLACEMENT_3D( '', #315, #316, #317 );
#241 = SURFACE_SIDE_STYLE( '', ( #318 ) );
#242 = EDGE_LOOP( '', ( #319, #320, #321, #322 ) );
#243 = AXIS2_PLACEMENT_3D( '', #323, #324, #325 );
#244 = DRAUGHTING_PRE_DEFINED_CURVE_FONT( 'continuous' );
#245 = COLOUR_RGB( '', 0.689999997615810, 0.689999997615810, 0.689999997615810 );
#246 = AXIS2_PLACEMENT_3D( '', #326, #327, #328 );
#247 = DRAUGHTING_PRE_DEFINED_CURVE_FONT( 'continuous' );
#248 = COLOUR_RGB( '', 0.689999997615810, 0.689999997615810, 0.689999997615810 );
#249 = AXIS2_PLACEMENT_3D( '', #329, #330, #331 );
#250 = DRAUGHTING_PRE_DEFINED_CURVE_FONT( 'continuous' );
#251 = COLOUR_RGB( '', 0.689999997615810, 0.689999997615810, 0.689999997615810 );
#252 = CARTESIAN_POINT( '', ( 0.000000000000000, -2.17122706532707E-014, -177.300000000000 ) );
#253 = VECTOR( '', #332, 1.00000000000000 );
#254 = DRAUGHTING_PRE_DEFINED_CURVE_FONT( 'continuous' );
#255 = COLOUR_RGB( '', 0.689999997615810, 0.689999997615810, 0.689999997615810 );
#256 = CARTESIAN_POINT( '', ( 0.000000000000000, -2.44921270764475E-014, -200.000000000000 ) );
#257 = VECTOR( '', #333, 1.00000000000000 );
#258 = DRAUGHTING_PRE_DEFINED_CURVE_FONT( 'continuous' );
#259 = COLOUR_RGB( '', 0.689999997615810, 0.689999997615810, 0.689999997615810 );
#260 = CARTESIAN_POINT( '', ( 0.000000000000000, 2.44921270764475E-014, 200.000000000000 ) );
#261 = VECTOR( '', #334, 1.00000000000000 );
#262 = SURFACE_SIDE_STYLE( '', ( #335 ) );
#263 = EDGE_LOOP( '', ( #336, #337, #338, #339 ) );
#264 = AXIS2_PLACEMENT_3D( '', #340, #341, #342 );
#266 = SURFACE_STYLE_FILL_AREA( #343 );
#267 = ORIENTED_EDGE( '', *, *, #53, .F. );
#268 = ORIENTED_EDGE( '', *, *, #55, .F. );
#269 = ORIENTED_EDGE( '', *, *, #83, .T. );
#270 = ORIENTED_EDGE( '', *, *, #93, .T. );
#271 = CARTESIAN_POINT( '', ( 0.000000000000000, 0.000000000000000, 0.000000000000000 ) );
#272 = DIRECTION( '', ( 1.00000000000000, 0.000000000000000, 0.000000000000000 ) );
#273 = DIRECTION( '', ( 0.000000000000000, 0.000000000000000, -1.00000000000000 ) );
#274 = CARTESIAN_POINT( '', ( 0.000000000000000, 0.000000000000000, 0.000000000000000 ) );
#275 = DIRECTION( '', ( 1.00000000000000, -0.000000000000000, 0.000000000000000 ) );
#276 = DIRECTION( '', ( 0.000000000000000, 0.000000000000000, -1.00000000000000 ) );
#277 = CARTESIAN_POINT( '', ( 0.000000000000000, 0.000000000000000, 0.000000000000000 ) );
#278 = DIRECTION( '', ( 1.00000000000000, -0.000000000000000, 0.000000000000000 ) );
#279 = DIRECTION( '', ( 0.000000000000000, 0.000000000000000, -1.00000000000000 ) );
#280 = SURFACE_STYLE_FILL_AREA( #344 );
#281 = SURFACE_STYLE_FILL_AREA( #345 );
#282 = ORIENTED_EDGE( '', *, *, #99, .T. );
#283 = ORIENTED_EDGE( '', *, *, #63, .T. );
#284 = ORIENTED_EDGE( '', *, *, #101, .T. );
#285 = ORIENTED_EDGE( '', *, *, #55, .T. );
#286 = CARTESIAN_POINT( '', ( 0.000000000000000, 0.000000000000000, 0.000000000000000 ) );
#287 = DIRECTION( '', ( -1.00000000000000, -0.000000000000000, -0.000000000000000 ) );
#288 = DIRECTION( '', ( 0.000000000000000, 0.000000000000000, -1.00000000000000 ) );
#289 = CARTESIAN_POINT( '', ( 5000.00000000000, 0.000000000000000, 0.000000000000000 ) );
#290 = DIRECTION( '', ( -1.00000000000000, 0.000000000000000, 0.000000000000000 ) );
#291 = DIRECTION( '', ( 0.000000000000000, 0.000000000000000, -1.00000000000000 ) );
#292 = CARTESIAN_POINT( '', ( 5000.00000000000, 0.000000000000000, 0.000000000000000 ) );
#293 = DIRECTION( '', ( 1.00000000000000, 0.000000000000000, 0.000000000000000 ) );
#294 = DIRECTION( '', ( 0.000000000000000, 0.000000000000000, -1.00000000000000 ) );
#295 = SURFACE_STYLE_FILL_AREA( #346 );
#296 = ORIENTED_EDGE( '', *, *, #97, .F. );
#297 = ORIENTED_EDGE( '', *, *, #93, .F. );
#298 = ORIENTED_EDGE( '', *, *, #75, .F. );
#299 = ORIENTED_EDGE( '', *, *, #67, .T. );
#300 = CARTESIAN_POINT( '', ( 0.000000000000000, 0.000000000000000, 0.000000000000000 ) );
#301 = DIRECTION( '', ( -1.00000000000000, -0.000000000000000, -0.000000000000000 ) );
#302 = DIRECTION( '', ( 0.000000000000000, 0.000000000000000, -1.00000000000000 ) );
#303 = DIRECTION( '', ( -1.00000000000000, 0.000000000000000, 0.000000000000000 ) );
#304 = CARTESIAN_POINT( '', ( 0.000000000000000, 0.000000000000000, 0.000000000000000 ) );
#305 = DIRECTION( '', ( 1.00000000000000, -0.000000000000000, 0.000000000000000 ) );
#306 = DIRECTION( '', ( 0.000000000000000, 0.000000000000000, -1.00000000000000 ) );
#307 = SURFACE_STYLE_FILL_AREA( #347 );
#308 = ORIENTED_EDGE( '', *, *, #63, .F. );
#309 = ORIENTED_EDGE( '', *, *, #89, .F. );
#310 = ORIENTED_EDGE( '', *, *, #95, .F. );
#311 = ORIENTED_EDGE( '', *, *, #67, .F. );
#312 = CARTESIAN_POINT( '', ( 5000.00000000000, 0.000000000000000, 0.000000000000000 ) );
#313 = DIRECTION( '', ( 1.00000000000000, 0.000000000000000, 0.000000000000000 ) );
#314 = DIRECTION( '', ( 0.000000000000000, 0.000000000000000, -1.00000000000000 ) );
#315 = CARTESIAN_POINT( '', ( 5000.00000000000, 0.000000000000000, 0.000000000000000 ) );
#316 = DIRECTION( '', ( -1.00000000000000, 0.000000000000000, 0.000000000000000 ) );
#317 = DIRECTION( '', ( 0.000000000000000, 0.000000000000000, -1.00000000000000 ) );
#318 = SURFACE_STYLE_FILL_AREA( #348 );
#319 = ORIENTED_EDGE( '', *, *, #97, .T. );
#320 = ORIENTED_EDGE( '', *, *, #95, .T. );
#321 = ORIENTED_EDGE( '', *, *, #75, .T. );
#322 = ORIENTED_EDGE( '', *, *, #83, .F. );
#323 = CARTESIAN_POINT( '', ( 0.000000000000000, 0.000000000000000, 0.000000000000000 ) );
#324 = DIRECTION( '', ( -1.00000000000000, -0.000000000000000, -0.000000000000000 ) );
#325 = DIRECTION( '', ( 0.000000000000000, 0.000000000000000, -1.00000000000000 ) );
#326 = CARTESIAN_POINT( '', ( 0.000000000000000, 0.000000000000000, 0.000000000000000 ) );
#327 = DIRECTION( '', ( 1.00000000000000, -0.000000000000000, 0.000000000000000 ) );
#328 = DIRECTION( '', ( 0.000000000000000, 0.000000000000000, -1.00000000000000 ) );
#329 = CARTESIAN_POINT( '', ( 5000.00000000000, 0.000000000000000, 0.000000000000000 ) );
#330 = DIRECTION( '', ( 1.00000000000000, 0.000000000000000, 0.000000000000000 ) );
#331 = DIRECTION( '', ( 0.000000000000000, 0.000000000000000, -1.00000000000000 ) );
#332 = DIRECTION( '', ( 1.00000000000000, 0.000000000000000, 0.000000000000000 ) );
#333 = DIRECTION( '', ( 1.00000000000000, 0.000000000000000, 0.000000000000000 ) );
#334 = DIRECTION( '', ( -1.00000000000000, -0.000000000000000, -0.000000000000000 ) );
#335 = SURFACE_STYLE_FILL_AREA( #349 );
#336 = ORIENTED_EDGE( '', *, *, #99, .F. );
#337 = ORIENTED_EDGE( '', *, *, #53, .T. );
#338 = ORIENTED_EDGE( '', *, *, #101, .F. );
#339 = ORIENTED_EDGE( '', *, *, #89, .T. );
#340 = CARTESIAN_POINT( '', ( 0.000000000000000, 0.000000000000000, 0.000000000000000 ) );
#341 = DIRECTION( '', ( -1.00000000000000, -0.000000000000000, -0.000000000000000 ) );
#342 = DIRECTION( '', ( 0.000000000000000, 0.000000000000000, -1.00000000000000 ) );
#343 = FILL_AREA_STYLE( '', ( #350 ) );
#344 = FILL_AREA_STYLE( '', ( #351 ) );
#345 = FILL_AREA_STYLE( '', ( #352 ) );
#346 = FILL_AREA_STYLE( '', ( #353 ) );
#347 = FILL_AREA_STYLE( '', ( #354 ) );
#348 = FILL_AREA_STYLE( '', ( #355 ) );
#349 = FILL_AREA_STYLE( '', ( #356 ) );
#350 = FILL_AREA_STYLE_COLOUR( '', #357 );
#351 = FILL_AREA_STYLE_COLOUR( '', #358 );
#352 = FILL_AREA_STYLE_COLOUR( '', #359 );
#353 = FILL_AREA_STYLE_COLOUR( '', #360 );
#354 = FILL_AREA_STYLE_COLOUR( '', #361 );
#355 = FILL_AREA_STYLE_COLOUR( '', #362 );
#356 = FILL_AREA_STYLE_COLOUR( '', #363 );
#357 = COLOUR_RGB( '', 0.689999997615810, 0.689999997615810, 0.689999997615810 );
#358 = COLOUR_RGB( '', 0.689999997615810, 0.689999997615810, 0.689999997615810 );
#359 = COLOUR_RGB( '', 0.689999997615810, 0.689999997615810, 0.689999997615810 );
#360 = COLOUR_RGB( '', 0.689999997615810, 0.689999997615810, 0.689999997615810 );
#361 = COLOUR_RGB( '', 0.689999997615810, 0.689999997615810, 0.689999997615810 );
#362 = COLOUR_RGB( '', 0.689999997615810, 0.689999997615810, 0.689999997615810 );
#363 = COLOUR_RGB( '', 0.689999997615810, 0.689999997615810, 0.689999997615810 );
ENDSEC;
END-ISO-10303-21;
