ISO-10303-21;
HEADER;
FILE_DESCRIPTION( ( '' ), '1' );
FILE_NAME( '//se01002/users/anro/AGRU_12705012526_PPH_grau_Rohr__5m_125X4_8__SDR26__ISO_S-12_5_10.stp', '2018-02-07T07:51:43', ( '' ), ( '' ), ' ', ' ', ' ' );
FILE_SCHEMA( ( 'automotive_design' ) );
ENDSEC;
DATA;
#1 = MECHANICAL_DESIGN_GEOMETRIC_PRESENTATION_REPRESENTATION( ' ', ( #10, #11, #12, #13, #14, #15, #16, #17, #18, #19, #20, #21, #22, #23, #24, #25, #26, #27, #28, #29, #30, #31, #32, #33, #34, #35, #36 ), #6 );
#2 = PRODUCT_DEFINITION_CONTEXT( '', #37, 'design' );
#3 = APPLICATION_PROTOCOL_DEFINITION( 'INTERNATIONAL STANDARD', 'automotive_design', 1994, #37 );
#4 = PRODUCT_CATEGORY_RELATIONSHIP( 'NONE', 'NONE', #38, #39 );
#5 = SHAPE_DEFINITION_REPRESENTATION( #40, #41 );
#6 =  ( GEOMETRIC_REPRESENTATION_CONTEXT( 3 )GLOBAL_UNCERTAINTY_ASSIGNED_CONTEXT( ( #44 ) )GLOBAL_UNIT_ASSIGNED_CONTEXT( ( #46, #47, #48 ) )REPRESENTATION_CONTEXT( 'NONE', 'WORKSPACE' ) );
#10 = STYLED_ITEM( '', ( #50 ), #51 );
#11 = STYLED_ITEM( '', ( #52 ), #53 );
#12 = STYLED_ITEM( '', ( #54 ), #55 );
#13 = STYLED_ITEM( '', ( #56 ), #57 );
#14 = STYLED_ITEM( '', ( #58 ), #59 );
#15 = STYLED_ITEM( '', ( #60 ), #61 );
#16 = STYLED_ITEM( '', ( #62 ), #63 );
#17 = STYLED_ITEM( '', ( #64 ), #65 );
#18 = STYLED_ITEM( '', ( #66 ), #67 );
#19 = STYLED_ITEM( '', ( #68 ), #69 );
#20 = STYLED_ITEM( '', ( #70 ), #71 );
#21 = STYLED_ITEM( '', ( #72 ), #73 );
#22 = STYLED_ITEM( '', ( #74 ), #75 );
#23 = STYLED_ITEM( '', ( #76 ), #77 );
#24 = STYLED_ITEM( '', ( #78 ), #79 );
#25 = STYLED_ITEM( '', ( #80 ), #81 );
#26 = STYLED_ITEM( '', ( #82 ), #83 );
#27 = STYLED_ITEM( '', ( #84 ), #85 );
#28 = STYLED_ITEM( '', ( #86 ), #87 );
#29 = STYLED_ITEM( '', ( #88 ), #89 );
#30 = STYLED_ITEM( '', ( #90 ), #91 );
#31 = STYLED_ITEM( '', ( #92 ), #93 );
#32 = STYLED_ITEM( '', ( #94 ), #95 );
#33 = STYLED_ITEM( '', ( #96 ), #97 );
#34 = STYLED_ITEM( '', ( #98 ), #99 );
#35 = STYLED_ITEM( '', ( #100 ), #101 );
#36 = STYLED_ITEM( '', ( #102 ), #103 );
#37 = APPLICATION_CONTEXT( ' ' );
#38 = PRODUCT_CATEGORY( 'part', 'NONE' );
#39 = PRODUCT_RELATED_PRODUCT_CATEGORY( 'detail', ' ', ( #104 ) );
#40 = PRODUCT_DEFINITION_SHAPE( 'NONE', 'NONE', #105 );
#41 = ADVANCED_BREP_SHAPE_REPRESENTATION( '1', ( #73, #106 ), #6 );
#44 = UNCERTAINTY_MEASURE_WITH_UNIT( LENGTH_MEASURE( 1.00000000000000E-006 ), #46, '', '' );
#46 =  ( CONVERSION_BASED_UNIT( 'MILLIMETRE', #109 )LENGTH_UNIT(  )NAMED_UNIT( #112 ) );
#47 =  ( NAMED_UNIT( #114 )PLANE_ANGLE_UNIT(  )SI_UNIT( $, .RADIAN. ) );
#48 =  ( NAMED_UNIT( #114 )SOLID_ANGLE_UNIT(  )SI_UNIT( $, .STERADIAN. ) );
#50 = PRESENTATION_STYLE_ASSIGNMENT( ( #120 ) );
#51 = VERTEX_POINT( '', #121 );
#52 = PRESENTATION_STYLE_ASSIGNMENT( ( #122 ) );
#53 = ADVANCED_FACE( '', ( #123, #124 ), #125, .F. );
#54 = PRESENTATION_STYLE_ASSIGNMENT( ( #126 ) );
#55 = EDGE_CURVE( '', #57, #81, #127, .T. );
#56 = PRESENTATION_STYLE_ASSIGNMENT( ( #128 ) );
#57 = VERTEX_POINT( '', #129 );
#58 = PRESENTATION_STYLE_ASSIGNMENT( ( #130 ) );
#59 = EDGE_CURVE( '', #51, #103, #131, .T. );
#60 = PRESENTATION_STYLE_ASSIGNMENT( ( #132 ) );
#61 = ADVANCED_FACE( '', ( #133 ), #134, .T. );
#62 = PRESENTATION_STYLE_ASSIGNMENT( ( #135 ) );
#63 = ADVANCED_FACE( '', ( #136, #137 ), #138, .T. );
#64 = PRESENTATION_STYLE_ASSIGNMENT( ( #139 ) );
#65 = VERTEX_POINT( '', #140 );
#66 = PRESENTATION_STYLE_ASSIGNMENT( ( #141 ) );
#67 = EDGE_CURVE( '', #65, #79, #142, .T. );
#68 = PRESENTATION_STYLE_ASSIGNMENT( ( #143 ) );
#69 = EDGE_CURVE( '', #103, #89, #144, .T. );
#70 = PRESENTATION_STYLE_ASSIGNMENT( ( #145 ) );
#71 = EDGE_CURVE( '', #81, #57, #146, .T. );
#72 = PRESENTATION_STYLE_ASSIGNMENT( ( #147 ) );
#73 = MANIFOLD_SOLID_BREP( '1', #148 );
#74 = PRESENTATION_STYLE_ASSIGNMENT( ( #149 ) );
#75 = ADVANCED_FACE( '', ( #150 ), #151, .T. );
#76 = PRESENTATION_STYLE_ASSIGNMENT( ( #152 ) );
#77 = EDGE_CURVE( '', #81, #65, #153, .T. );
#78 = PRESENTATION_STYLE_ASSIGNMENT( ( #154 ) );
#79 = VERTEX_POINT( '', #155 );
#80 = PRESENTATION_STYLE_ASSIGNMENT( ( #156 ) );
#81 = VERTEX_POINT( '', #157 );
#82 = PRESENTATION_STYLE_ASSIGNMENT( ( #158 ) );
#83 = ADVANCED_FACE( '', ( #159 ), #160, .F. );
#84 = PRESENTATION_STYLE_ASSIGNMENT( ( #161 ) );
#85 = VERTEX_POINT( '', #162 );
#86 = PRESENTATION_STYLE_ASSIGNMENT( ( #163 ) );
#87 = EDGE_CURVE( '', #85, #51, #164, .T. );
#88 = PRESENTATION_STYLE_ASSIGNMENT( ( #165 ) );
#89 = VERTEX_POINT( '', #166 );
#90 = PRESENTATION_STYLE_ASSIGNMENT( ( #167 ) );
#91 = EDGE_CURVE( '', #79, #57, #168, .T. );
#92 = PRESENTATION_STYLE_ASSIGNMENT( ( #169 ) );
#93 = EDGE_CURVE( '', #89, #103, #170, .T. );
#94 = PRESENTATION_STYLE_ASSIGNMENT( ( #171 ) );
#95 = ADVANCED_FACE( '', ( #172 ), #173, .F. );
#96 = PRESENTATION_STYLE_ASSIGNMENT( ( #174 ) );
#97 = EDGE_CURVE( '', #89, #85, #175, .T. );
#98 = PRESENTATION_STYLE_ASSIGNMENT( ( #176 ) );
#99 = EDGE_CURVE( '', #79, #65, #177, .T. );
#100 = PRESENTATION_STYLE_ASSIGNMENT( ( #178 ) );
#101 = EDGE_CURVE( '', #51, #85, #179, .T. );
#102 = PRESENTATION_STYLE_ASSIGNMENT( ( #180 ) );
#103 = VERTEX_POINT( '', #181 );
#104 = PRODUCT( '1', '1', 'PART-1-DESC', ( #182 ) );
#105 = PRODUCT_DEFINITION( 'NONE', 'NONE', #183, #2 );
#106 = AXIS2_PLACEMENT_3D( '', #184, #185, #186 );
#109 = LENGTH_MEASURE_WITH_UNIT( LENGTH_MEASURE( 1.00000000000000 ), #187 );
#112 = DIMENSIONAL_EXPONENTS( 1.00000000000000, 0.000000000000000, 0.000000000000000, 0.000000000000000, 0.000000000000000, 0.000000000000000, 0.000000000000000 );
#114 = DIMENSIONAL_EXPONENTS( 0.000000000000000, 0.000000000000000, 0.000000000000000, 0.000000000000000, 0.000000000000000, 0.000000000000000, 0.000000000000000 );
#120 = POINT_STYLE( ' ', #188, POSITIVE_LENGTH_MEASURE( 1.00000000000000E-006 ), #189 );
#121 = CARTESIAN_POINT( '', ( 5000.00000000000, 7.06597866155512E-015, 57.7000000000000 ) );
#122 = SURFACE_STYLE_USAGE( .BOTH., #190 );
#123 = FACE_OUTER_BOUND( '', #191, .T. );
#124 = FACE_BOUND( '', #192, .T. );
#125 = PLANE( '', #193 );
#126 = CURVE_STYLE( '', #194, POSITIVE_LENGTH_MEASURE( 1.00000000000000E-006 ), #195 );
#127 = CIRCLE( '', #196, 62.5000000000000 );
#128 = POINT_STYLE( ' ', #197, POSITIVE_LENGTH_MEASURE( 1.00000000000000E-006 ), #198 );
#129 = CARTESIAN_POINT( '', ( 0.000000000000000, 7.65378971138986E-015, 62.5000000000000 ) );
#130 = CURVE_STYLE( '', #199, POSITIVE_LENGTH_MEASURE( 1.00000000000000E-006 ), #200 );
#131 = LINE( '', #201, #202 );
#132 = SURFACE_STYLE_USAGE( .BOTH., #203 );
#133 = FACE_OUTER_BOUND( '', #204, .T. );
#134 = CYLINDRICAL_SURFACE( '', #205, 62.5000000000000 );
#135 = SURFACE_STYLE_USAGE( .BOTH., #206 );
#136 = FACE_OUTER_BOUND( '', #207, .T. );
#137 = FACE_BOUND( '', #208, .T. );
#138 = PLANE( '', #209 );
#139 = POINT_STYLE( ' ', #210, POSITIVE_LENGTH_MEASURE( 1.00000000000000E-006 ), #211 );
#140 = CARTESIAN_POINT( '', ( 5000.00000000000, 0.000000000000000, -62.5000000000000 ) );
#141 = CURVE_STYLE( '', #212, POSITIVE_LENGTH_MEASURE( 1.00000000000000E-006 ), #213 );
#142 = CIRCLE( '', #214, 62.5000000000000 );
#143 = CURVE_STYLE( '', #215, POSITIVE_LENGTH_MEASURE( 1.00000000000000E-006 ), #216 );
#144 = CIRCLE( '', #217, 57.7000000000000 );
#145 = CURVE_STYLE( '', #218, POSITIVE_LENGTH_MEASURE( 1.00000000000000E-006 ), #219 );
#146 = CIRCLE( '', #220, 62.5000000000000 );
#147 = SURFACE_STYLE_USAGE( .BOTH., #221 );
#148 = CLOSED_SHELL( '', ( #61, #83, #95, #75, #63, #53 ) );
#149 = SURFACE_STYLE_USAGE( .BOTH., #222 );
#150 = FACE_OUTER_BOUND( '', #223, .T. );
#151 = CYLINDRICAL_SURFACE( '', #224, 62.5000000000000 );
#152 = CURVE_STYLE( '', #225, POSITIVE_LENGTH_MEASURE( 1.00000000000000E-006 ), #226 );
#153 = LINE( '', #227, #228 );
#154 = POINT_STYLE( ' ', #229, POSITIVE_LENGTH_MEASURE( 1.00000000000000E-006 ), #230 );
#155 = CARTESIAN_POINT( '', ( 5000.00000000000, 7.65378971138986E-015, 62.5000000000000 ) );
#156 = POINT_STYLE( ' ', #231, POSITIVE_LENGTH_MEASURE( 1.00000000000000E-006 ), #232 );
#157 = CARTESIAN_POINT( '', ( 0.000000000000000, 0.000000000000000, -62.5000000000000 ) );
#158 = SURFACE_STYLE_USAGE( .BOTH., #233 );
#159 = FACE_OUTER_BOUND( '', #234, .T. );
#160 = CYLINDRICAL_SURFACE( '', #235, 57.7000000000000 );
#161 = POINT_STYLE( ' ', #236, POSITIVE_LENGTH_MEASURE( 1.00000000000000E-006 ), #237 );
#162 = CARTESIAN_POINT( '', ( 5000.00000000000, 0.000000000000000, -57.7000000000000 ) );
#163 = CURVE_STYLE( '', #238, POSITIVE_LENGTH_MEASURE( 1.00000000000000E-006 ), #239 );
#164 = CIRCLE( '', #240, 57.7000000000000 );
#165 = POINT_STYLE( ' ', #241, POSITIVE_LENGTH_MEASURE( 1.00000000000000E-006 ), #242 );
#166 = CARTESIAN_POINT( '', ( 0.000000000000000, 0.000000000000000, -57.7000000000000 ) );
#167 = CURVE_STYLE( '', #243, POSITIVE_LENGTH_MEASURE( 1.00000000000000E-006 ), #244 );
#168 = LINE( '', #245, #246 );
#169 = CURVE_STYLE( '', #247, POSITIVE_LENGTH_MEASURE( 1.00000000000000E-006 ), #248 );
#170 = CIRCLE( '', #249, 57.7000000000000 );
#171 = SURFACE_STYLE_USAGE( .BOTH., #250 );
#172 = FACE_OUTER_BOUND( '', #251, .T. );
#173 = CYLINDRICAL_SURFACE( '', #252, 57.7000000000000 );
#174 = CURVE_STYLE( '', #253, POSITIVE_LENGTH_MEASURE( 1.00000000000000E-006 ), #254 );
#175 = LINE( '', #255, #256 );
#176 = CURVE_STYLE( '', #257, POSITIVE_LENGTH_MEASURE( 1.00000000000000E-006 ), #258 );
#177 = CIRCLE( '', #259, 62.5000000000000 );
#178 = CURVE_STYLE( '', #260, POSITIVE_LENGTH_MEASURE( 1.00000000000000E-006 ), #261 );
#179 = CIRCLE( '', #262, 57.7000000000000 );
#180 = POINT_STYLE( ' ', #263, POSITIVE_LENGTH_MEASURE( 1.00000000000000E-006 ), #264 );
#181 = CARTESIAN_POINT( '', ( 0.000000000000000, 7.06597866155512E-015, 57.7000000000000 ) );
#182 = PRODUCT_CONTEXT( '', #37, 'mechanical' );
#183 = PRODUCT_DEFINITION_FORMATION_WITH_SPECIFIED_SOURCE( ' ', 'NONE', #104, .NOT_KNOWN. );
#184 = CARTESIAN_POINT( '', ( 0.000000000000000, 0.000000000000000, 0.000000000000000 ) );
#185 = DIRECTION( '', ( 0.000000000000000, 0.000000000000000, 1.00000000000000 ) );
#186 = DIRECTION( '', ( 1.00000000000000, 0.000000000000000, 0.000000000000000 ) );
#187 =  ( NAMED_UNIT( #112 )LENGTH_UNIT(  )SI_UNIT( .MILLI., .METRE. ) );
#188 = PRE_DEFINED_MARKER( '' );
#189 = COLOUR_RGB( '', 0.689999997615810, 0.689999997615810, 0.689999997615810 );
#190 = SURFACE_SIDE_STYLE( '', ( #266 ) );
#191 = EDGE_LOOP( '', ( #267, #268 ) );
#192 = EDGE_LOOP( '', ( #269, #270 ) );
#193 = AXIS2_PLACEMENT_3D( '', #271, #272, #273 );
#194 = DRAUGHTING_PRE_DEFINED_CURVE_FONT( 'continuous' );
#195 = COLOUR_RGB( '', 0.689999997615810, 0.689999997615810, 0.689999997615810 );
#196 = AXIS2_PLACEMENT_3D( '', #274, #275, #276 );
#197 = PRE_DEFINED_MARKER( '' );
#198 = COLOUR_RGB( '', 0.689999997615810, 0.689999997615810, 0.689999997615810 );
#199 = DRAUGHTING_PRE_DEFINED_CURVE_FONT( 'continuous' );
#200 = COLOUR_RGB( '', 0.689999997615810, 0.689999997615810, 0.689999997615810 );
#201 = CARTESIAN_POINT( '', ( 0.000000000000000, 7.06597866155512E-015, 57.7000000000000 ) );
#202 = VECTOR( '', #277, 1.00000000000000 );
#203 = SURFACE_SIDE_STYLE( '', ( #278 ) );
#204 = EDGE_LOOP( '', ( #279, #280, #281, #282 ) );
#205 = AXIS2_PLACEMENT_3D( '', #283, #284, #285 );
#206 = SURFACE_SIDE_STYLE( '', ( #286 ) );
#207 = EDGE_LOOP( '', ( #287, #288 ) );
#208 = EDGE_LOOP( '', ( #289, #290 ) );
#209 = AXIS2_PLACEMENT_3D( '', #291, #292, #293 );
#210 = PRE_DEFINED_MARKER( '' );
#211 = COLOUR_RGB( '', 0.689999997615810, 0.689999997615810, 0.689999997615810 );
#212 = DRAUGHTING_PRE_DEFINED_CURVE_FONT( 'continuous' );
#213 = COLOUR_RGB( '', 0.689999997615810, 0.689999997615810, 0.689999997615810 );
#214 = AXIS2_PLACEMENT_3D( '', #294, #295, #296 );
#215 = DRAUGHTING_PRE_DEFINED_CURVE_FONT( 'continuous' );
#216 = COLOUR_RGB( '', 0.689999997615810, 0.689999997615810, 0.689999997615810 );
#217 = AXIS2_PLACEMENT_3D( '', #297, #298, #299 );
#218 = DRAUGHTING_PRE_DEFINED_CURVE_FONT( 'continuous' );
#219 = COLOUR_RGB( '', 0.689999997615810, 0.689999997615810, 0.689999997615810 );
#220 = AXIS2_PLACEMENT_3D( '', #300, #301, #302 );
#221 = SURFACE_SIDE_STYLE( '', ( #303 ) );
#222 = SURFACE_SIDE_STYLE( '', ( #304 ) );
#223 = EDGE_LOOP( '', ( #305, #306, #307, #308 ) );
#224 = AXIS2_PLACEMENT_3D( '', #309, #310, #311 );
#225 = DRAUGHTING_PRE_DEFINED_CURVE_FONT( 'continuous' );
#226 = COLOUR_RGB( '', 0.689999997615810, 0.689999997615810, 0.689999997615810 );
#227 = CARTESIAN_POINT( '', ( 0.000000000000000, -7.65378971138986E-015, -62.5000000000000 ) );
#228 = VECTOR( '', #312, 1.00000000000000 );
#229 = PRE_DEFINED_MARKER( '' );
#230 = COLOUR_RGB( '', 0.689999997615810, 0.689999997615810, 0.689999997615810 );
#231 = PRE_DEFINED_MARKER( '' );
#232 = COLOUR_RGB( '', 0.689999997615810, 0.689999997615810, 0.689999997615810 );
#233 = SURFACE_SIDE_STYLE( '', ( #313 ) );
#234 = EDGE_LOOP( '', ( #314, #315, #316, #317 ) );
#235 = AXIS2_PLACEMENT_3D( '', #318, #319, #320 );
#236 = PRE_DEFINED_MARKER( '' );
#237 = COLOUR_RGB( '', 0.689999997615810, 0.689999997615810, 0.689999997615810 );
#238 = DRAUGHTING_PRE_DEFINED_CURVE_FONT( 'continuous' );
#239 = COLOUR_RGB( '', 0.689999997615810, 0.689999997615810, 0.689999997615810 );
#240 = AXIS2_PLACEMENT_3D( '', #321, #322, #323 );
#241 = PRE_DEFINED_MARKER( '' );
#242 = COLOUR_RGB( '', 0.689999997615810, 0.689999997615810, 0.689999997615810 );
#243 = DRAUGHTING_PRE_DEFINED_CURVE_FONT( 'continuous' );
#244 = COLOUR_RGB( '', 0.689999997615810, 0.689999997615810, 0.689999997615810 );
#245 = CARTESIAN_POINT( '', ( 0.000000000000000, 7.65378971138986E-015, 62.5000000000000 ) );
#246 = VECTOR( '', #324, 1.00000000000000 );
#247 = DRAUGHTING_PRE_DEFINED_CURVE_FONT( 'continuous' );
#248 = COLOUR_RGB( '', 0.689999997615810, 0.689999997615810, 0.689999997615810 );
#249 = AXIS2_PLACEMENT_3D( '', #325, #326, #327 );
#250 = SURFACE_SIDE_STYLE( '', ( #328 ) );
#251 = EDGE_LOOP( '', ( #329, #330, #331, #332 ) );
#252 = AXIS2_PLACEMENT_3D( '', #333, #334, #335 );
#253 = DRAUGHTING_PRE_DEFINED_CURVE_FONT( 'continuous' );
#254 = COLOUR_RGB( '', 0.689999997615810, 0.689999997615810, 0.689999997615810 );
#255 = CARTESIAN_POINT( '', ( 0.000000000000000, -7.06597866155512E-015, -57.7000000000000 ) );
#256 = VECTOR( '', #336, 1.00000000000000 );
#257 = DRAUGHTING_PRE_DEFINED_CURVE_FONT( 'continuous' );
#258 = COLOUR_RGB( '', 0.689999997615810, 0.689999997615810, 0.689999997615810 );
#259 = AXIS2_PLACEMENT_3D( '', #337, #338, #339 );
#260 = DRAUGHTING_PRE_DEFINED_CURVE_FONT( 'continuous' );
#261 = COLOUR_RGB( '', 0.689999997615810, 0.689999997615810, 0.689999997615810 );
#262 = AXIS2_PLACEMENT_3D( '', #340, #341, #342 );
#263 = PRE_DEFINED_MARKER( '' );
#264 = COLOUR_RGB( '', 0.689999997615810, 0.689999997615810, 0.689999997615810 );
#266 = SURFACE_STYLE_FILL_AREA( #343 );
#267 = ORIENTED_EDGE( '', *, *, #71, .F. );
#268 = ORIENTED_EDGE( '', *, *, #55, .F. );
#269 = ORIENTED_EDGE( '', *, *, #93, .T. );
#270 = ORIENTED_EDGE( '', *, *, #69, .T. );
#271 = CARTESIAN_POINT( '', ( 0.000000000000000, 0.000000000000000, 0.000000000000000 ) );
#272 = DIRECTION( '', ( 1.00000000000000, 0.000000000000000, 0.000000000000000 ) );
#273 = DIRECTION( '', ( 0.000000000000000, 0.000000000000000, -1.00000000000000 ) );
#274 = CARTESIAN_POINT( '', ( 0.000000000000000, 0.000000000000000, 0.000000000000000 ) );
#275 = DIRECTION( '', ( 1.00000000000000, -0.000000000000000, 0.000000000000000 ) );
#276 = DIRECTION( '', ( 0.000000000000000, 0.000000000000000, -1.00000000000000 ) );
#277 = DIRECTION( '', ( -1.00000000000000, 0.000000000000000, 0.000000000000000 ) );
#278 = SURFACE_STYLE_FILL_AREA( #344 );
#279 = ORIENTED_EDGE( '', *, *, #77, .F. );
#280 = ORIENTED_EDGE( '', *, *, #71, .T. );
#281 = ORIENTED_EDGE( '', *, *, #91, .F. );
#282 = ORIENTED_EDGE( '', *, *, #99, .T. );
#283 = CARTESIAN_POINT( '', ( 0.000000000000000, 0.000000000000000, 0.000000000000000 ) );
#284 = DIRECTION( '', ( -1.00000000000000, -0.000000000000000, -0.000000000000000 ) );
#285 = DIRECTION( '', ( 0.000000000000000, 0.000000000000000, -1.00000000000000 ) );
#286 = SURFACE_STYLE_FILL_AREA( #345 );
#287 = ORIENTED_EDGE( '', *, *, #67, .F. );
#288 = ORIENTED_EDGE( '', *, *, #99, .F. );
#289 = ORIENTED_EDGE( '', *, *, #87, .F. );
#290 = ORIENTED_EDGE( '', *, *, #101, .F. );
#291 = CARTESIAN_POINT( '', ( 5000.00000000000, 0.000000000000000, 0.000000000000000 ) );
#292 = DIRECTION( '', ( 1.00000000000000, 0.000000000000000, 0.000000000000000 ) );
#293 = DIRECTION( '', ( 0.000000000000000, 0.000000000000000, -1.00000000000000 ) );
#294 = CARTESIAN_POINT( '', ( 5000.00000000000, 0.000000000000000, 0.000000000000000 ) );
#295 = DIRECTION( '', ( -1.00000000000000, 0.000000000000000, 0.000000000000000 ) );
#296 = DIRECTION( '', ( 0.000000000000000, 0.000000000000000, -1.00000000000000 ) );
#297 = CARTESIAN_POINT( '', ( 0.000000000000000, 0.000000000000000, 0.000000000000000 ) );
#298 = DIRECTION( '', ( 1.00000000000000, -0.000000000000000, 0.000000000000000 ) );
#299 = DIRECTION( '', ( 0.000000000000000, 0.000000000000000, -1.00000000000000 ) );
#300 = CARTESIAN_POINT( '', ( 0.000000000000000, 0.000000000000000, 0.000000000000000 ) );
#301 = DIRECTION( '', ( 1.00000000000000, -0.000000000000000, 0.000000000000000 ) );
#302 = DIRECTION( '', ( 0.000000000000000, 0.000000000000000, -1.00000000000000 ) );
#303 = SURFACE_STYLE_FILL_AREA( #346 );
#304 = SURFACE_STYLE_FILL_AREA( #347 );
#305 = ORIENTED_EDGE( '', *, *, #77, .T. );
#306 = ORIENTED_EDGE( '', *, *, #67, .T. );
#307 = ORIENTED_EDGE( '', *, *, #91, .T. );
#308 = ORIENTED_EDGE( '', *, *, #55, .T. );
#309 = CARTESIAN_POINT( '', ( 0.000000000000000, 0.000000000000000, 0.000000000000000 ) );
#310 = DIRECTION( '', ( -1.00000000000000, -0.000000000000000, -0.000000000000000 ) );
#311 = DIRECTION( '', ( 0.000000000000000, 0.000000000000000, -1.00000000000000 ) );
#312 = DIRECTION( '', ( 1.00000000000000, 0.000000000000000, 0.000000000000000 ) );
#313 = SURFACE_STYLE_FILL_AREA( #348 );
#314 = ORIENTED_EDGE( '', *, *, #97, .F. );
#315 = ORIENTED_EDGE( '', *, *, #69, .F. );
#316 = ORIENTED_EDGE( '', *, *, #59, .F. );
#317 = ORIENTED_EDGE( '', *, *, #101, .T. );
#318 = CARTESIAN_POINT( '', ( 0.000000000000000, 0.000000000000000, 0.000000000000000 ) );
#319 = DIRECTION( '', ( -1.00000000000000, -0.000000000000000, -0.000000000000000 ) );
#320 = DIRECTION( '', ( 0.000000000000000, 0.000000000000000, -1.00000000000000 ) );
#321 = CARTESIAN_POINT( '', ( 5000.00000000000, 0.000000000000000, 0.000000000000000 ) );
#322 = DIRECTION( '', ( 1.00000000000000, 0.000000000000000, 0.000000000000000 ) );
#323 = DIRECTION( '', ( 0.000000000000000, 0.000000000000000, -1.00000000000000 ) );
#324 = DIRECTION( '', ( -1.00000000000000, -0.000000000000000, -0.000000000000000 ) );
#325 = CARTESIAN_POINT( '', ( 0.000000000000000, 0.000000000000000, 0.000000000000000 ) );
#326 = DIRECTION( '', ( 1.00000000000000, -0.000000000000000, 0.000000000000000 ) );
#327 = DIRECTION( '', ( 0.000000000000000, 0.000000000000000, -1.00000000000000 ) );
#328 = SURFACE_STYLE_FILL_AREA( #349 );
#329 = ORIENTED_EDGE( '', *, *, #97, .T. );
#330 = ORIENTED_EDGE( '', *, *, #87, .T. );
#331 = ORIENTED_EDGE( '', *, *, #59, .T. );
#332 = ORIENTED_EDGE( '', *, *, #93, .F. );
#333 = CARTESIAN_POINT( '', ( 0.000000000000000, 0.000000000000000, 0.000000000000000 ) );
#334 = DIRECTION( '', ( -1.00000000000000, -0.000000000000000, -0.000000000000000 ) );
#335 = DIRECTION( '', ( 0.000000000000000, 0.000000000000000, -1.00000000000000 ) );
#336 = DIRECTION( '', ( 1.00000000000000, 0.000000000000000, 0.000000000000000 ) );
#337 = CARTESIAN_POINT( '', ( 5000.00000000000, 0.000000000000000, 0.000000000000000 ) );
#338 = DIRECTION( '', ( -1.00000000000000, 0.000000000000000, 0.000000000000000 ) );
#339 = DIRECTION( '', ( 0.000000000000000, 0.000000000000000, -1.00000000000000 ) );
#340 = CARTESIAN_POINT( '', ( 5000.00000000000, 0.000000000000000, 0.000000000000000 ) );
#341 = DIRECTION( '', ( 1.00000000000000, 0.000000000000000, 0.000000000000000 ) );
#342 = DIRECTION( '', ( 0.000000000000000, 0.000000000000000, -1.00000000000000 ) );
#343 = FILL_AREA_STYLE( '', ( #350 ) );
#344 = FILL_AREA_STYLE( '', ( #351 ) );
#345 = FILL_AREA_STYLE( '', ( #352 ) );
#346 = FILL_AREA_STYLE( '', ( #353 ) );
#347 = FILL_AREA_STYLE( '', ( #354 ) );
#348 = FILL_AREA_STYLE( '', ( #355 ) );
#349 = FILL_AREA_STYLE( '', ( #356 ) );
#350 = FILL_AREA_STYLE_COLOUR( '', #357 );
#351 = FILL_AREA_STYLE_COLOUR( '', #358 );
#352 = FILL_AREA_STYLE_COLOUR( '', #359 );
#353 = FILL_AREA_STYLE_COLOUR( '', #360 );
#354 = FILL_AREA_STYLE_COLOUR( '', #361 );
#355 = FILL_AREA_STYLE_COLOUR( '', #362 );
#356 = FILL_AREA_STYLE_COLOUR( '', #363 );
#357 = COLOUR_RGB( '', 0.689999997615810, 0.689999997615810, 0.689999997615810 );
#358 = COLOUR_RGB( '', 0.689999997615810, 0.689999997615810, 0.689999997615810 );
#359 = COLOUR_RGB( '', 0.689999997615810, 0.689999997615810, 0.689999997615810 );
#360 = COLOUR_RGB( '', 0.689999997615810, 0.689999997615810, 0.689999997615810 );
#361 = COLOUR_RGB( '', 0.689999997615810, 0.689999997615810, 0.689999997615810 );
#362 = COLOUR_RGB( '', 0.689999997615810, 0.689999997615810, 0.689999997615810 );
#363 = COLOUR_RGB( '', 0.689999997615810, 0.689999997615810, 0.689999997615810 );
ENDSEC;
END-ISO-10303-21;
