ISO-10303-21;
HEADER;
FILE_DESCRIPTION( ( '' ), '1' );
FILE_NAME( '//se01002/users/anro/AGRU_12705016026_PPH_grau_Rohr__5m_160X6_2__SDR26__ISO_S-12_5_10.stp', '2018-02-07T07:51:57', ( '' ), ( '' ), ' ', ' ', ' ' );
FILE_SCHEMA( ( 'automotive_design' ) );
ENDSEC;
DATA;
#1 = MECHANICAL_DESIGN_GEOMETRIC_PRESENTATION_REPRESENTATION( ' ', ( #10, #11, #12, #13, #14, #15, #16, #17, #18, #19, #20, #21, #22, #23, #24, #25, #26, #27, #28, #29, #30, #31, #32, #33, #34, #35, #36 ), #6 );
#2 = PRODUCT_DEFINITION_CONTEXT( '', #37, 'design' );
#3 = APPLICATION_PROTOCOL_DEFINITION( 'INTERNATIONAL STANDARD', 'automotive_design', 1994, #37 );
#4 = PRODUCT_CATEGORY_RELATIONSHIP( 'NONE', 'NONE', #38, #39 );
#5 = SHAPE_DEFINITION_REPRESENTATION( #40, #41 );
#6 =  ( GEOMETRIC_REPRESENTATION_CONTEXT( 3 )GLOBAL_UNCERTAINTY_ASSIGNED_CONTEXT( ( #44 ) )GLOBAL_UNIT_ASSIGNED_CONTEXT( ( #46, #47, #48 ) )REPRESENTATION_CONTEXT( 'NONE', 'WORKSPACE' ) );
#10 = STYLED_ITEM( '', ( #50 ), #51 );
#11 = STYLED_ITEM( '', ( #52 ), #53 );
#12 = STYLED_ITEM( '', ( #54 ), #55 );
#13 = STYLED_ITEM( '', ( #56 ), #57 );
#14 = STYLED_ITEM( '', ( #58 ), #59 );
#15 = STYLED_ITEM( '', ( #60 ), #61 );
#16 = STYLED_ITEM( '', ( #62 ), #63 );
#17 = STYLED_ITEM( '', ( #64 ), #65 );
#18 = STYLED_ITEM( '', ( #66 ), #67 );
#19 = STYLED_ITEM( '', ( #68 ), #69 );
#20 = STYLED_ITEM( '', ( #70 ), #71 );
#21 = STYLED_ITEM( '', ( #72 ), #73 );
#22 = STYLED_ITEM( '', ( #74 ), #75 );
#23 = STYLED_ITEM( '', ( #76 ), #77 );
#24 = STYLED_ITEM( '', ( #78 ), #79 );
#25 = STYLED_ITEM( '', ( #80 ), #81 );
#26 = STYLED_ITEM( '', ( #82 ), #83 );
#27 = STYLED_ITEM( '', ( #84 ), #85 );
#28 = STYLED_ITEM( '', ( #86 ), #87 );
#29 = STYLED_ITEM( '', ( #88 ), #89 );
#30 = STYLED_ITEM( '', ( #90 ), #91 );
#31 = STYLED_ITEM( '', ( #92 ), #93 );
#32 = STYLED_ITEM( '', ( #94 ), #95 );
#33 = STYLED_ITEM( '', ( #96 ), #97 );
#34 = STYLED_ITEM( '', ( #98 ), #99 );
#35 = STYLED_ITEM( '', ( #100 ), #101 );
#36 = STYLED_ITEM( '', ( #102 ), #103 );
#37 = APPLICATION_CONTEXT( ' ' );
#38 = PRODUCT_CATEGORY( 'part', 'NONE' );
#39 = PRODUCT_RELATED_PRODUCT_CATEGORY( 'detail', ' ', ( #104 ) );
#40 = PRODUCT_DEFINITION_SHAPE( 'NONE', 'NONE', #105 );
#41 = ADVANCED_BREP_SHAPE_REPRESENTATION( '1', ( #71, #106 ), #6 );
#44 = UNCERTAINTY_MEASURE_WITH_UNIT( LENGTH_MEASURE( 1.00000000000000E-006 ), #46, '', '' );
#46 =  ( CONVERSION_BASED_UNIT( 'MILLIMETRE', #109 )LENGTH_UNIT(  )NAMED_UNIT( #112 ) );
#47 =  ( NAMED_UNIT( #114 )PLANE_ANGLE_UNIT(  )SI_UNIT( $, .RADIAN. ) );
#48 =  ( NAMED_UNIT( #114 )SOLID_ANGLE_UNIT(  )SI_UNIT( $, .STERADIAN. ) );
#50 = PRESENTATION_STYLE_ASSIGNMENT( ( #120 ) );
#51 = EDGE_CURVE( '', #91, #61, #121, .T. );
#52 = PRESENTATION_STYLE_ASSIGNMENT( ( #122 ) );
#53 = EDGE_CURVE( '', #93, #73, #123, .T. );
#54 = PRESENTATION_STYLE_ASSIGNMENT( ( #124 ) );
#55 = VERTEX_POINT( '', #125 );
#56 = PRESENTATION_STYLE_ASSIGNMENT( ( #126 ) );
#57 = EDGE_CURVE( '', #55, #91, #127, .T. );
#58 = PRESENTATION_STYLE_ASSIGNMENT( ( #128 ) );
#59 = VERTEX_POINT( '', #129 );
#60 = PRESENTATION_STYLE_ASSIGNMENT( ( #130 ) );
#61 = VERTEX_POINT( '', #131 );
#62 = PRESENTATION_STYLE_ASSIGNMENT( ( #132 ) );
#63 = EDGE_CURVE( '', #73, #93, #133, .T. );
#64 = PRESENTATION_STYLE_ASSIGNMENT( ( #134 ) );
#65 = EDGE_CURVE( '', #95, #75, #135, .T. );
#66 = PRESENTATION_STYLE_ASSIGNMENT( ( #136 ) );
#67 = ADVANCED_FACE( '', ( #137 ), #138, .F. );
#68 = PRESENTATION_STYLE_ASSIGNMENT( ( #139 ) );
#69 = ADVANCED_FACE( '', ( #140 ), #141, .T. );
#70 = PRESENTATION_STYLE_ASSIGNMENT( ( #142 ) );
#71 = MANIFOLD_SOLID_BREP( '1', #143 );
#72 = PRESENTATION_STYLE_ASSIGNMENT( ( #144 ) );
#73 = VERTEX_POINT( '', #145 );
#74 = PRESENTATION_STYLE_ASSIGNMENT( ( #146 ) );
#75 = VERTEX_POINT( '', #147 );
#76 = PRESENTATION_STYLE_ASSIGNMENT( ( #148 ) );
#77 = EDGE_CURVE( '', #59, #55, #149, .T. );
#78 = PRESENTATION_STYLE_ASSIGNMENT( ( #150 ) );
#79 = ADVANCED_FACE( '', ( #151, #152 ), #153, .T. );
#80 = PRESENTATION_STYLE_ASSIGNMENT( ( #154 ) );
#81 = EDGE_CURVE( '', #75, #95, #155, .T. );
#82 = PRESENTATION_STYLE_ASSIGNMENT( ( #156 ) );
#83 = EDGE_CURVE( '', #61, #59, #157, .T. );
#84 = PRESENTATION_STYLE_ASSIGNMENT( ( #158 ) );
#85 = ADVANCED_FACE( '', ( #159 ), #160, .T. );
#86 = PRESENTATION_STYLE_ASSIGNMENT( ( #161 ) );
#87 = EDGE_CURVE( '', #61, #91, #162, .T. );
#88 = PRESENTATION_STYLE_ASSIGNMENT( ( #163 ) );
#89 = EDGE_CURVE( '', #75, #73, #164, .T. );
#90 = PRESENTATION_STYLE_ASSIGNMENT( ( #165 ) );
#91 = VERTEX_POINT( '', #166 );
#92 = PRESENTATION_STYLE_ASSIGNMENT( ( #167 ) );
#93 = VERTEX_POINT( '', #168 );
#94 = PRESENTATION_STYLE_ASSIGNMENT( ( #169 ) );
#95 = VERTEX_POINT( '', #170 );
#96 = PRESENTATION_STYLE_ASSIGNMENT( ( #171 ) );
#97 = EDGE_CURVE( '', #93, #95, #172, .T. );
#98 = PRESENTATION_STYLE_ASSIGNMENT( ( #173 ) );
#99 = ADVANCED_FACE( '', ( #174 ), #175, .F. );
#100 = PRESENTATION_STYLE_ASSIGNMENT( ( #176 ) );
#101 = EDGE_CURVE( '', #55, #59, #177, .T. );
#102 = PRESENTATION_STYLE_ASSIGNMENT( ( #178 ) );
#103 = ADVANCED_FACE( '', ( #179, #180 ), #181, .F. );
#104 = PRODUCT( '1', '1', 'PART-1-DESC', ( #182 ) );
#105 = PRODUCT_DEFINITION( 'NONE', 'NONE', #183, #2 );
#106 = AXIS2_PLACEMENT_3D( '', #184, #185, #186 );
#109 = LENGTH_MEASURE_WITH_UNIT( LENGTH_MEASURE( 1.00000000000000 ), #187 );
#112 = DIMENSIONAL_EXPONENTS( 1.00000000000000, 0.000000000000000, 0.000000000000000, 0.000000000000000, 0.000000000000000, 0.000000000000000, 0.000000000000000 );
#114 = DIMENSIONAL_EXPONENTS( 0.000000000000000, 0.000000000000000, 0.000000000000000, 0.000000000000000, 0.000000000000000, 0.000000000000000, 0.000000000000000 );
#120 = CURVE_STYLE( '', #188, POSITIVE_LENGTH_MEASURE( 1.00000000000000E-006 ), #189 );
#121 = CIRCLE( '', #190, 73.8000000000000 );
#122 = CURVE_STYLE( '', #191, POSITIVE_LENGTH_MEASURE( 1.00000000000000E-006 ), #192 );
#123 = CIRCLE( '', #193, 80.0000000000000 );
#124 = POINT_STYLE( ' ', #194, POSITIVE_LENGTH_MEASURE( 1.00000000000000E-006 ), #195 );
#125 = CARTESIAN_POINT( '', ( 0.000000000000000, 0.000000000000000, -73.8000000000000 ) );
#126 = CURVE_STYLE( '', #196, POSITIVE_LENGTH_MEASURE( 1.00000000000000E-006 ), #197 );
#127 = LINE( '', #198, #199 );
#128 = POINT_STYLE( ' ', #200, POSITIVE_LENGTH_MEASURE( 1.00000000000000E-006 ), #201 );
#129 = CARTESIAN_POINT( '', ( 0.000000000000000, 9.03759489120914E-015, 73.8000000000000 ) );
#130 = POINT_STYLE( ' ', #202, POSITIVE_LENGTH_MEASURE( 1.00000000000000E-006 ), #203 );
#131 = CARTESIAN_POINT( '', ( 5000.00000000000, 9.03759489120914E-015, 73.8000000000000 ) );
#132 = CURVE_STYLE( '', #204, POSITIVE_LENGTH_MEASURE( 1.00000000000000E-006 ), #205 );
#133 = CIRCLE( '', #206, 80.0000000000000 );
#134 = CURVE_STYLE( '', #207, POSITIVE_LENGTH_MEASURE( 1.00000000000000E-006 ), #208 );
#135 = CIRCLE( '', #209, 80.0000000000000 );
#136 = SURFACE_STYLE_USAGE( .BOTH., #210 );
#137 = FACE_OUTER_BOUND( '', #211, .T. );
#138 = CYLINDRICAL_SURFACE( '', #212, 73.8000000000000 );
#139 = SURFACE_STYLE_USAGE( .BOTH., #213 );
#140 = FACE_OUTER_BOUND( '', #214, .T. );
#141 = CYLINDRICAL_SURFACE( '', #215, 80.0000000000000 );
#142 = SURFACE_STYLE_USAGE( .BOTH., #216 );
#143 = CLOSED_SHELL( '', ( #69, #99, #67, #85, #79, #103 ) );
#144 = POINT_STYLE( ' ', #217, POSITIVE_LENGTH_MEASURE( 1.00000000000000E-006 ), #218 );
#145 = CARTESIAN_POINT( '', ( 0.000000000000000, 9.79685083057902E-015, 80.0000000000000 ) );
#146 = POINT_STYLE( ' ', #219, POSITIVE_LENGTH_MEASURE( 1.00000000000000E-006 ), #220 );
#147 = CARTESIAN_POINT( '', ( 5000.00000000000, 9.79685083057902E-015, 80.0000000000000 ) );
#148 = CURVE_STYLE( '', #221, POSITIVE_LENGTH_MEASURE( 1.00000000000000E-006 ), #222 );
#149 = CIRCLE( '', #223, 73.8000000000000 );
#150 = SURFACE_STYLE_USAGE( .BOTH., #224 );
#151 = FACE_OUTER_BOUND( '', #225, .T. );
#152 = FACE_BOUND( '', #226, .T. );
#153 = PLANE( '', #227 );
#154 = CURVE_STYLE( '', #228, POSITIVE_LENGTH_MEASURE( 1.00000000000000E-006 ), #229 );
#155 = CIRCLE( '', #230, 80.0000000000000 );
#156 = CURVE_STYLE( '', #231, POSITIVE_LENGTH_MEASURE( 1.00000000000000E-006 ), #232 );
#157 = LINE( '', #233, #234 );
#158 = SURFACE_STYLE_USAGE( .BOTH., #235 );
#159 = FACE_OUTER_BOUND( '', #236, .T. );
#160 = CYLINDRICAL_SURFACE( '', #237, 80.0000000000000 );
#161 = CURVE_STYLE( '', #238, POSITIVE_LENGTH_MEASURE( 1.00000000000000E-006 ), #239 );
#162 = CIRCLE( '', #240, 73.8000000000000 );
#163 = CURVE_STYLE( '', #241, POSITIVE_LENGTH_MEASURE( 1.00000000000000E-006 ), #242 );
#164 = LINE( '', #243, #244 );
#165 = POINT_STYLE( ' ', #245, POSITIVE_LENGTH_MEASURE( 1.00000000000000E-006 ), #246 );
#166 = CARTESIAN_POINT( '', ( 5000.00000000000, 0.000000000000000, -73.8000000000000 ) );
#167 = POINT_STYLE( ' ', #247, POSITIVE_LENGTH_MEASURE( 1.00000000000000E-006 ), #248 );
#168 = CARTESIAN_POINT( '', ( 0.000000000000000, 0.000000000000000, -80.0000000000000 ) );
#169 = POINT_STYLE( ' ', #249, POSITIVE_LENGTH_MEASURE( 1.00000000000000E-006 ), #250 );
#170 = CARTESIAN_POINT( '', ( 5000.00000000000, 0.000000000000000, -80.0000000000000 ) );
#171 = CURVE_STYLE( '', #251, POSITIVE_LENGTH_MEASURE( 1.00000000000000E-006 ), #252 );
#172 = LINE( '', #253, #254 );
#173 = SURFACE_STYLE_USAGE( .BOTH., #255 );
#174 = FACE_OUTER_BOUND( '', #256, .T. );
#175 = CYLINDRICAL_SURFACE( '', #257, 73.8000000000000 );
#176 = CURVE_STYLE( '', #258, POSITIVE_LENGTH_MEASURE( 1.00000000000000E-006 ), #259 );
#177 = CIRCLE( '', #260, 73.8000000000000 );
#178 = SURFACE_STYLE_USAGE( .BOTH., #261 );
#179 = FACE_OUTER_BOUND( '', #262, .T. );
#180 = FACE_BOUND( '', #263, .T. );
#181 = PLANE( '', #264 );
#182 = PRODUCT_CONTEXT( '', #37, 'mechanical' );
#183 = PRODUCT_DEFINITION_FORMATION_WITH_SPECIFIED_SOURCE( ' ', 'NONE', #104, .NOT_KNOWN. );
#184 = CARTESIAN_POINT( '', ( 0.000000000000000, 0.000000000000000, 0.000000000000000 ) );
#185 = DIRECTION( '', ( 0.000000000000000, 0.000000000000000, 1.00000000000000 ) );
#186 = DIRECTION( '', ( 1.00000000000000, 0.000000000000000, 0.000000000000000 ) );
#187 =  ( NAMED_UNIT( #112 )LENGTH_UNIT(  )SI_UNIT( .MILLI., .METRE. ) );
#188 = DRAUGHTING_PRE_DEFINED_CURVE_FONT( 'continuous' );
#189 = COLOUR_RGB( '', 0.689999997615810, 0.689999997615810, 0.689999997615810 );
#190 = AXIS2_PLACEMENT_3D( '', #266, #267, #268 );
#191 = DRAUGHTING_PRE_DEFINED_CURVE_FONT( 'continuous' );
#192 = COLOUR_RGB( '', 0.689999997615810, 0.689999997615810, 0.689999997615810 );
#193 = AXIS2_PLACEMENT_3D( '', #269, #270, #271 );
#194 = PRE_DEFINED_MARKER( '' );
#195 = COLOUR_RGB( '', 0.689999997615810, 0.689999997615810, 0.689999997615810 );
#196 = DRAUGHTING_PRE_DEFINED_CURVE_FONT( 'continuous' );
#197 = COLOUR_RGB( '', 0.689999997615810, 0.689999997615810, 0.689999997615810 );
#198 = CARTESIAN_POINT( '', ( 0.000000000000000, -9.03759489120914E-015, -73.8000000000000 ) );
#199 = VECTOR( '', #272, 1.00000000000000 );
#200 = PRE_DEFINED_MARKER( '' );
#201 = COLOUR_RGB( '', 0.689999997615810, 0.689999997615810, 0.689999997615810 );
#202 = PRE_DEFINED_MARKER( '' );
#203 = COLOUR_RGB( '', 0.689999997615810, 0.689999997615810, 0.689999997615810 );
#204 = DRAUGHTING_PRE_DEFINED_CURVE_FONT( 'continuous' );
#205 = COLOUR_RGB( '', 0.689999997615810, 0.689999997615810, 0.689999997615810 );
#206 = AXIS2_PLACEMENT_3D( '', #273, #274, #275 );
#207 = DRAUGHTING_PRE_DEFINED_CURVE_FONT( 'continuous' );
#208 = COLOUR_RGB( '', 0.689999997615810, 0.689999997615810, 0.689999997615810 );
#209 = AXIS2_PLACEMENT_3D( '', #276, #277, #278 );
#210 = SURFACE_SIDE_STYLE( '', ( #279 ) );
#211 = EDGE_LOOP( '', ( #280, #281, #282, #283 ) );
#212 = AXIS2_PLACEMENT_3D( '', #284, #285, #286 );
#213 = SURFACE_SIDE_STYLE( '', ( #287 ) );
#214 = EDGE_LOOP( '', ( #288, #289, #290, #291 ) );
#215 = AXIS2_PLACEMENT_3D( '', #292, #293, #294 );
#216 = SURFACE_SIDE_STYLE( '', ( #295 ) );
#217 = PRE_DEFINED_MARKER( '' );
#218 = COLOUR_RGB( '', 0.689999997615810, 0.689999997615810, 0.689999997615810 );
#219 = PRE_DEFINED_MARKER( '' );
#220 = COLOUR_RGB( '', 0.689999997615810, 0.689999997615810, 0.689999997615810 );
#221 = DRAUGHTING_PRE_DEFINED_CURVE_FONT( 'continuous' );
#222 = COLOUR_RGB( '', 0.689999997615810, 0.689999997615810, 0.689999997615810 );
#223 = AXIS2_PLACEMENT_3D( '', #296, #297, #298 );
#224 = SURFACE_SIDE_STYLE( '', ( #299 ) );
#225 = EDGE_LOOP( '', ( #300, #301 ) );
#226 = EDGE_LOOP( '', ( #302, #303 ) );
#227 = AXIS2_PLACEMENT_3D( '', #304, #305, #306 );
#228 = DRAUGHTING_PRE_DEFINED_CURVE_FONT( 'continuous' );
#229 = COLOUR_RGB( '', 0.689999997615810, 0.689999997615810, 0.689999997615810 );
#230 = AXIS2_PLACEMENT_3D( '', #307, #308, #309 );
#231 = DRAUGHTING_PRE_DEFINED_CURVE_FONT( 'continuous' );
#232 = COLOUR_RGB( '', 0.689999997615810, 0.689999997615810, 0.689999997615810 );
#233 = CARTESIAN_POINT( '', ( 0.000000000000000, 9.03759489120914E-015, 73.8000000000000 ) );
#234 = VECTOR( '', #310, 1.00000000000000 );
#235 = SURFACE_SIDE_STYLE( '', ( #311 ) );
#236 = EDGE_LOOP( '', ( #312, #313, #314, #315 ) );
#237 = AXIS2_PLACEMENT_3D( '', #316, #317, #318 );
#238 = DRAUGHTING_PRE_DEFINED_CURVE_FONT( 'continuous' );
#239 = COLOUR_RGB( '', 0.689999997615810, 0.689999997615810, 0.689999997615810 );
#240 = AXIS2_PLACEMENT_3D( '', #319, #320, #321 );
#241 = DRAUGHTING_PRE_DEFINED_CURVE_FONT( 'continuous' );
#242 = COLOUR_RGB( '', 0.689999997615810, 0.689999997615810, 0.689999997615810 );
#243 = CARTESIAN_POINT( '', ( 0.000000000000000, 9.79685083057902E-015, 80.0000000000000 ) );
#244 = VECTOR( '', #322, 1.00000000000000 );
#245 = PRE_DEFINED_MARKER( '' );
#246 = COLOUR_RGB( '', 0.689999997615810, 0.689999997615810, 0.689999997615810 );
#247 = PRE_DEFINED_MARKER( '' );
#248 = COLOUR_RGB( '', 0.689999997615810, 0.689999997615810, 0.689999997615810 );
#249 = PRE_DEFINED_MARKER( '' );
#250 = COLOUR_RGB( '', 0.689999997615810, 0.689999997615810, 0.689999997615810 );
#251 = DRAUGHTING_PRE_DEFINED_CURVE_FONT( 'continuous' );
#252 = COLOUR_RGB( '', 0.689999997615810, 0.689999997615810, 0.689999997615810 );
#253 = CARTESIAN_POINT( '', ( 0.000000000000000, -9.79685083057902E-015, -80.0000000000000 ) );
#254 = VECTOR( '', #323, 1.00000000000000 );
#255 = SURFACE_SIDE_STYLE( '', ( #324 ) );
#256 = EDGE_LOOP( '', ( #325, #326, #327, #328 ) );
#257 = AXIS2_PLACEMENT_3D( '', #329, #330, #331 );
#258 = DRAUGHTING_PRE_DEFINED_CURVE_FONT( 'continuous' );
#259 = COLOUR_RGB( '', 0.689999997615810, 0.689999997615810, 0.689999997615810 );
#260 = AXIS2_PLACEMENT_3D( '', #332, #333, #334 );
#261 = SURFACE_SIDE_STYLE( '', ( #335 ) );
#262 = EDGE_LOOP( '', ( #336, #337 ) );
#263 = EDGE_LOOP( '', ( #338, #339 ) );
#264 = AXIS2_PLACEMENT_3D( '', #340, #341, #342 );
#266 = CARTESIAN_POINT( '', ( 5000.00000000000, 0.000000000000000, 0.000000000000000 ) );
#267 = DIRECTION( '', ( 1.00000000000000, 0.000000000000000, 0.000000000000000 ) );
#268 = DIRECTION( '', ( 0.000000000000000, 0.000000000000000, -1.00000000000000 ) );
#269 = CARTESIAN_POINT( '', ( 0.000000000000000, 0.000000000000000, 0.000000000000000 ) );
#270 = DIRECTION( '', ( 1.00000000000000, -0.000000000000000, 0.000000000000000 ) );
#271 = DIRECTION( '', ( 0.000000000000000, 0.000000000000000, -1.00000000000000 ) );
#272 = DIRECTION( '', ( 1.00000000000000, 0.000000000000000, 0.000000000000000 ) );
#273 = CARTESIAN_POINT( '', ( 0.000000000000000, 0.000000000000000, 0.000000000000000 ) );
#274 = DIRECTION( '', ( 1.00000000000000, -0.000000000000000, 0.000000000000000 ) );
#275 = DIRECTION( '', ( 0.000000000000000, 0.000000000000000, -1.00000000000000 ) );
#276 = CARTESIAN_POINT( '', ( 5000.00000000000, 0.000000000000000, 0.000000000000000 ) );
#277 = DIRECTION( '', ( -1.00000000000000, 0.000000000000000, 0.000000000000000 ) );
#278 = DIRECTION( '', ( 0.000000000000000, 0.000000000000000, -1.00000000000000 ) );
#279 = SURFACE_STYLE_FILL_AREA( #343 );
#280 = ORIENTED_EDGE( '', *, *, #57, .T. );
#281 = ORIENTED_EDGE( '', *, *, #51, .T. );
#282 = ORIENTED_EDGE( '', *, *, #83, .T. );
#283 = ORIENTED_EDGE( '', *, *, #101, .F. );
#284 = CARTESIAN_POINT( '', ( 0.000000000000000, 0.000000000000000, 0.000000000000000 ) );
#285 = DIRECTION( '', ( -1.00000000000000, -0.000000000000000, -0.000000000000000 ) );
#286 = DIRECTION( '', ( 0.000000000000000, 0.000000000000000, -1.00000000000000 ) );
#287 = SURFACE_STYLE_FILL_AREA( #344 );
#288 = ORIENTED_EDGE( '', *, *, #97, .F. );
#289 = ORIENTED_EDGE( '', *, *, #53, .T. );
#290 = ORIENTED_EDGE( '', *, *, #89, .F. );
#291 = ORIENTED_EDGE( '', *, *, #81, .T. );
#292 = CARTESIAN_POINT( '', ( 0.000000000000000, 0.000000000000000, 0.000000000000000 ) );
#293 = DIRECTION( '', ( -1.00000000000000, -0.000000000000000, -0.000000000000000 ) );
#294 = DIRECTION( '', ( 0.000000000000000, 0.000000000000000, -1.00000000000000 ) );
#295 = SURFACE_STYLE_FILL_AREA( #345 );
#296 = CARTESIAN_POINT( '', ( 0.000000000000000, 0.000000000000000, 0.000000000000000 ) );
#297 = DIRECTION( '', ( 1.00000000000000, -0.000000000000000, 0.000000000000000 ) );
#298 = DIRECTION( '', ( 0.000000000000000, 0.000000000000000, -1.00000000000000 ) );
#299 = SURFACE_STYLE_FILL_AREA( #346 );
#300 = ORIENTED_EDGE( '', *, *, #65, .F. );
#301 = ORIENTED_EDGE( '', *, *, #81, .F. );
#302 = ORIENTED_EDGE( '', *, *, #51, .F. );
#303 = ORIENTED_EDGE( '', *, *, #87, .F. );
#304 = CARTESIAN_POINT( '', ( 5000.00000000000, 0.000000000000000, 0.000000000000000 ) );
#305 = DIRECTION( '', ( 1.00000000000000, 0.000000000000000, 0.000000000000000 ) );
#306 = DIRECTION( '', ( 0.000000000000000, 0.000000000000000, -1.00000000000000 ) );
#307 = CARTESIAN_POINT( '', ( 5000.00000000000, 0.000000000000000, 0.000000000000000 ) );
#308 = DIRECTION( '', ( -1.00000000000000, 0.000000000000000, 0.000000000000000 ) );
#309 = DIRECTION( '', ( 0.000000000000000, 0.000000000000000, -1.00000000000000 ) );
#310 = DIRECTION( '', ( -1.00000000000000, 0.000000000000000, 0.000000000000000 ) );
#311 = SURFACE_STYLE_FILL_AREA( #347 );
#312 = ORIENTED_EDGE( '', *, *, #97, .T. );
#313 = ORIENTED_EDGE( '', *, *, #65, .T. );
#314 = ORIENTED_EDGE( '', *, *, #89, .T. );
#315 = ORIENTED_EDGE( '', *, *, #63, .T. );
#316 = CARTESIAN_POINT( '', ( 0.000000000000000, 0.000000000000000, 0.000000000000000 ) );
#317 = DIRECTION( '', ( -1.00000000000000, -0.000000000000000, -0.000000000000000 ) );
#318 = DIRECTION( '', ( 0.000000000000000, 0.000000000000000, -1.00000000000000 ) );
#319 = CARTESIAN_POINT( '', ( 5000.00000000000, 0.000000000000000, 0.000000000000000 ) );
#320 = DIRECTION( '', ( 1.00000000000000, 0.000000000000000, 0.000000000000000 ) );
#321 = DIRECTION( '', ( 0.000000000000000, 0.000000000000000, -1.00000000000000 ) );
#322 = DIRECTION( '', ( -1.00000000000000, -0.000000000000000, -0.000000000000000 ) );
#323 = DIRECTION( '', ( 1.00000000000000, 0.000000000000000, 0.000000000000000 ) );
#324 = SURFACE_STYLE_FILL_AREA( #348 );
#325 = ORIENTED_EDGE( '', *, *, #57, .F. );
#326 = ORIENTED_EDGE( '', *, *, #77, .F. );
#327 = ORIENTED_EDGE( '', *, *, #83, .F. );
#328 = ORIENTED_EDGE( '', *, *, #87, .T. );
#329 = CARTESIAN_POINT( '', ( 0.000000000000000, 0.000000000000000, 0.000000000000000 ) );
#330 = DIRECTION( '', ( -1.00000000000000, -0.000000000000000, -0.000000000000000 ) );
#331 = DIRECTION( '', ( 0.000000000000000, 0.000000000000000, -1.00000000000000 ) );
#332 = CARTESIAN_POINT( '', ( 0.000000000000000, 0.000000000000000, 0.000000000000000 ) );
#333 = DIRECTION( '', ( 1.00000000000000, -0.000000000000000, 0.000000000000000 ) );
#334 = DIRECTION( '', ( 0.000000000000000, 0.000000000000000, -1.00000000000000 ) );
#335 = SURFACE_STYLE_FILL_AREA( #349 );
#336 = ORIENTED_EDGE( '', *, *, #53, .F. );
#337 = ORIENTED_EDGE( '', *, *, #63, .F. );
#338 = ORIENTED_EDGE( '', *, *, #101, .T. );
#339 = ORIENTED_EDGE( '', *, *, #77, .T. );
#340 = CARTESIAN_POINT( '', ( 0.000000000000000, 0.000000000000000, 0.000000000000000 ) );
#341 = DIRECTION( '', ( 1.00000000000000, 0.000000000000000, 0.000000000000000 ) );
#342 = DIRECTION( '', ( 0.000000000000000, 0.000000000000000, -1.00000000000000 ) );
#343 = FILL_AREA_STYLE( '', ( #350 ) );
#344 = FILL_AREA_STYLE( '', ( #351 ) );
#345 = FILL_AREA_STYLE( '', ( #352 ) );
#346 = FILL_AREA_STYLE( '', ( #353 ) );
#347 = FILL_AREA_STYLE( '', ( #354 ) );
#348 = FILL_AREA_STYLE( '', ( #355 ) );
#349 = FILL_AREA_STYLE( '', ( #356 ) );
#350 = FILL_AREA_STYLE_COLOUR( '', #357 );
#351 = FILL_AREA_STYLE_COLOUR( '', #358 );
#352 = FILL_AREA_STYLE_COLOUR( '', #359 );
#353 = FILL_AREA_STYLE_COLOUR( '', #360 );
#354 = FILL_AREA_STYLE_COLOUR( '', #361 );
#355 = FILL_AREA_STYLE_COLOUR( '', #362 );
#356 = FILL_AREA_STYLE_COLOUR( '', #363 );
#357 = COLOUR_RGB( '', 0.689999997615810, 0.689999997615810, 0.689999997615810 );
#358 = COLOUR_RGB( '', 0.689999997615810, 0.689999997615810, 0.689999997615810 );
#359 = COLOUR_RGB( '', 0.689999997615810, 0.689999997615810, 0.689999997615810 );
#360 = COLOUR_RGB( '', 0.689999997615810, 0.689999997615810, 0.689999997615810 );
#361 = COLOUR_RGB( '', 0.689999997615810, 0.689999997615810, 0.689999997615810 );
#362 = COLOUR_RGB( '', 0.689999997615810, 0.689999997615810, 0.689999997615810 );
#363 = COLOUR_RGB( '', 0.689999997615810, 0.689999997615810, 0.689999997615810 );
ENDSEC;
END-ISO-10303-21;
