ISO-10303-21;
HEADER;
FILE_DESCRIPTION( ( '' ), '1' );
FILE_NAME( '//se01002/users/anro/AGRU_12705018026_PPH_grau_Rohr__5m_180X6_9__SDR26__ISO_S-12_5_10.stp', '2018-02-07T07:52:04', ( '' ), ( '' ), ' ', ' ', ' ' );
FILE_SCHEMA( ( 'automotive_design' ) );
ENDSEC;
DATA;
#1 = MECHANICAL_DESIGN_GEOMETRIC_PRESENTATION_REPRESENTATION( ' ', ( #10, #11, #12, #13, #14, #15, #16, #17, #18, #19, #20, #21, #22, #23, #24, #25, #26, #27, #28, #29, #30, #31, #32, #33, #34, #35, #36 ), #6 );
#2 = PRODUCT_DEFINITION_CONTEXT( '', #37, 'design' );
#3 = APPLICATION_PROTOCOL_DEFINITION( 'INTERNATIONAL STANDARD', 'automotive_design', 1994, #37 );
#4 = PRODUCT_CATEGORY_RELATIONSHIP( 'NONE', 'NONE', #38, #39 );
#5 = SHAPE_DEFINITION_REPRESENTATION( #40, #41 );
#6 =  ( GEOMETRIC_REPRESENTATION_CONTEXT( 3 )GLOBAL_UNCERTAINTY_ASSIGNED_CONTEXT( ( #44 ) )GLOBAL_UNIT_ASSIGNED_CONTEXT( ( #46, #47, #48 ) )REPRESENTATION_CONTEXT( 'NONE', 'WORKSPACE' ) );
#10 = STYLED_ITEM( '', ( #50 ), #51 );
#11 = STYLED_ITEM( '', ( #52 ), #53 );
#12 = STYLED_ITEM( '', ( #54 ), #55 );
#13 = STYLED_ITEM( '', ( #56 ), #57 );
#14 = STYLED_ITEM( '', ( #58 ), #59 );
#15 = STYLED_ITEM( '', ( #60 ), #61 );
#16 = STYLED_ITEM( '', ( #62 ), #63 );
#17 = STYLED_ITEM( '', ( #64 ), #65 );
#18 = STYLED_ITEM( '', ( #66 ), #67 );
#19 = STYLED_ITEM( '', ( #68 ), #69 );
#20 = STYLED_ITEM( '', ( #70 ), #71 );
#21 = STYLED_ITEM( '', ( #72 ), #73 );
#22 = STYLED_ITEM( '', ( #74 ), #75 );
#23 = STYLED_ITEM( '', ( #76 ), #77 );
#24 = STYLED_ITEM( '', ( #78 ), #79 );
#25 = STYLED_ITEM( '', ( #80 ), #81 );
#26 = STYLED_ITEM( '', ( #82 ), #83 );
#27 = STYLED_ITEM( '', ( #84 ), #85 );
#28 = STYLED_ITEM( '', ( #86 ), #87 );
#29 = STYLED_ITEM( '', ( #88 ), #89 );
#30 = STYLED_ITEM( '', ( #90 ), #91 );
#31 = STYLED_ITEM( '', ( #92 ), #93 );
#32 = STYLED_ITEM( '', ( #94 ), #95 );
#33 = STYLED_ITEM( '', ( #96 ), #97 );
#34 = STYLED_ITEM( '', ( #98 ), #99 );
#35 = STYLED_ITEM( '', ( #100 ), #101 );
#36 = STYLED_ITEM( '', ( #102 ), #103 );
#37 = APPLICATION_CONTEXT( ' ' );
#38 = PRODUCT_CATEGORY( 'part', 'NONE' );
#39 = PRODUCT_RELATED_PRODUCT_CATEGORY( 'detail', ' ', ( #104 ) );
#40 = PRODUCT_DEFINITION_SHAPE( 'NONE', 'NONE', #105 );
#41 = ADVANCED_BREP_SHAPE_REPRESENTATION( '1', ( #79, #106 ), #6 );
#44 = UNCERTAINTY_MEASURE_WITH_UNIT( LENGTH_MEASURE( 1.00000000000000E-006 ), #46, '', '' );
#46 =  ( CONVERSION_BASED_UNIT( 'MILLIMETRE', #109 )LENGTH_UNIT(  )NAMED_UNIT( #112 ) );
#47 =  ( NAMED_UNIT( #114 )PLANE_ANGLE_UNIT(  )SI_UNIT( $, .RADIAN. ) );
#48 =  ( NAMED_UNIT( #114 )SOLID_ANGLE_UNIT(  )SI_UNIT( $, .STERADIAN. ) );
#50 = PRESENTATION_STYLE_ASSIGNMENT( ( #120 ) );
#51 = ADVANCED_FACE( '', ( #121 ), #122, .T. );
#52 = PRESENTATION_STYLE_ASSIGNMENT( ( #123 ) );
#53 = EDGE_CURVE( '', #93, #71, #124, .T. );
#54 = PRESENTATION_STYLE_ASSIGNMENT( ( #125 ) );
#55 = VERTEX_POINT( '', #126 );
#56 = PRESENTATION_STYLE_ASSIGNMENT( ( #127 ) );
#57 = EDGE_CURVE( '', #103, #97, #128, .T. );
#58 = PRESENTATION_STYLE_ASSIGNMENT( ( #129 ) );
#59 = EDGE_CURVE( '', #71, #103, #130, .T. );
#60 = PRESENTATION_STYLE_ASSIGNMENT( ( #131 ) );
#61 = EDGE_CURVE( '', #83, #95, #132, .T. );
#62 = PRESENTATION_STYLE_ASSIGNMENT( ( #133 ) );
#63 = EDGE_CURVE( '', #83, #81, #134, .T. );
#64 = PRESENTATION_STYLE_ASSIGNMENT( ( #135 ) );
#65 = EDGE_CURVE( '', #55, #81, #136, .T. );
#66 = PRESENTATION_STYLE_ASSIGNMENT( ( #137 ) );
#67 = ADVANCED_FACE( '', ( #138, #139 ), #140, .T. );
#68 = PRESENTATION_STYLE_ASSIGNMENT( ( #141 ) );
#69 = EDGE_CURVE( '', #71, #93, #142, .T. );
#70 = PRESENTATION_STYLE_ASSIGNMENT( ( #143 ) );
#71 = VERTEX_POINT( '', #144 );
#72 = PRESENTATION_STYLE_ASSIGNMENT( ( #145 ) );
#73 = ADVANCED_FACE( '', ( #146 ), #147, .F. );
#74 = PRESENTATION_STYLE_ASSIGNMENT( ( #148 ) );
#75 = EDGE_CURVE( '', #95, #55, #149, .T. );
#76 = PRESENTATION_STYLE_ASSIGNMENT( ( #150 ) );
#77 = ADVANCED_FACE( '', ( #151 ), #152, .T. );
#78 = PRESENTATION_STYLE_ASSIGNMENT( ( #153 ) );
#79 = MANIFOLD_SOLID_BREP( '1', #154 );
#80 = PRESENTATION_STYLE_ASSIGNMENT( ( #155 ) );
#81 = VERTEX_POINT( '', #156 );
#82 = PRESENTATION_STYLE_ASSIGNMENT( ( #157 ) );
#83 = VERTEX_POINT( '', #158 );
#84 = PRESENTATION_STYLE_ASSIGNMENT( ( #159 ) );
#85 = EDGE_CURVE( '', #97, #103, #160, .T. );
#86 = PRESENTATION_STYLE_ASSIGNMENT( ( #161 ) );
#87 = EDGE_CURVE( '', #81, #83, #162, .T. );
#88 = PRESENTATION_STYLE_ASSIGNMENT( ( #163 ) );
#89 = ADVANCED_FACE( '', ( #164, #165 ), #166, .F. );
#90 = PRESENTATION_STYLE_ASSIGNMENT( ( #167 ) );
#91 = EDGE_CURVE( '', #55, #95, #168, .T. );
#92 = PRESENTATION_STYLE_ASSIGNMENT( ( #169 ) );
#93 = VERTEX_POINT( '', #170 );
#94 = PRESENTATION_STYLE_ASSIGNMENT( ( #171 ) );
#95 = VERTEX_POINT( '', #172 );
#96 = PRESENTATION_STYLE_ASSIGNMENT( ( #173 ) );
#97 = VERTEX_POINT( '', #174 );
#98 = PRESENTATION_STYLE_ASSIGNMENT( ( #175 ) );
#99 = EDGE_CURVE( '', #97, #93, #176, .T. );
#100 = PRESENTATION_STYLE_ASSIGNMENT( ( #177 ) );
#101 = ADVANCED_FACE( '', ( #178 ), #179, .F. );
#102 = PRESENTATION_STYLE_ASSIGNMENT( ( #180 ) );
#103 = VERTEX_POINT( '', #181 );
#104 = PRODUCT( '1', '1', 'PART-1-DESC', ( #182 ) );
#105 = PRODUCT_DEFINITION( 'NONE', 'NONE', #183, #2 );
#106 = AXIS2_PLACEMENT_3D( '', #184, #185, #186 );
#109 = LENGTH_MEASURE_WITH_UNIT( LENGTH_MEASURE( 1.00000000000000 ), #187 );
#112 = DIMENSIONAL_EXPONENTS( 1.00000000000000, 0.000000000000000, 0.000000000000000, 0.000000000000000, 0.000000000000000, 0.000000000000000, 0.000000000000000 );
#114 = DIMENSIONAL_EXPONENTS( 0.000000000000000, 0.000000000000000, 0.000000000000000, 0.000000000000000, 0.000000000000000, 0.000000000000000, 0.000000000000000 );
#120 = SURFACE_STYLE_USAGE( .BOTH., #188 );
#121 = FACE_OUTER_BOUND( '', #189, .T. );
#122 = CYLINDRICAL_SURFACE( '', #190, 90.0000000000000 );
#123 = CURVE_STYLE( '', #191, POSITIVE_LENGTH_MEASURE( 1.00000000000000E-006 ), #192 );
#124 = CIRCLE( '', #193, 90.0000000000000 );
#125 = POINT_STYLE( ' ', #194, POSITIVE_LENGTH_MEASURE( 1.00000000000000E-006 ), #195 );
#126 = CARTESIAN_POINT( '', ( 0.000000000000000, 0.000000000000000, -83.1000000000000 ) );
#127 = CURVE_STYLE( '', #196, POSITIVE_LENGTH_MEASURE( 1.00000000000000E-006 ), #197 );
#128 = CIRCLE( '', #198, 90.0000000000000 );
#129 = CURVE_STYLE( '', #199, POSITIVE_LENGTH_MEASURE( 1.00000000000000E-006 ), #200 );
#130 = LINE( '', #201, #202 );
#131 = CURVE_STYLE( '', #203, POSITIVE_LENGTH_MEASURE( 1.00000000000000E-006 ), #204 );
#132 = LINE( '', #205, #206 );
#133 = CURVE_STYLE( '', #207, POSITIVE_LENGTH_MEASURE( 1.00000000000000E-006 ), #208 );
#134 = CIRCLE( '', #209, 83.1000000000000 );
#135 = CURVE_STYLE( '', #210, POSITIVE_LENGTH_MEASURE( 1.00000000000000E-006 ), #211 );
#136 = LINE( '', #212, #213 );
#137 = SURFACE_STYLE_USAGE( .BOTH., #214 );
#138 = FACE_OUTER_BOUND( '', #215, .T. );
#139 = FACE_BOUND( '', #216, .T. );
#140 = PLANE( '', #217 );
#141 = CURVE_STYLE( '', #218, POSITIVE_LENGTH_MEASURE( 1.00000000000000E-006 ), #219 );
#142 = CIRCLE( '', #220, 90.0000000000000 );
#143 = POINT_STYLE( ' ', #221, POSITIVE_LENGTH_MEASURE( 1.00000000000000E-006 ), #222 );
#144 = CARTESIAN_POINT( '', ( 0.000000000000000, 0.000000000000000, -90.0000000000000 ) );
#145 = SURFACE_STYLE_USAGE( .BOTH., #223 );
#146 = FACE_OUTER_BOUND( '', #224, .T. );
#147 = CYLINDRICAL_SURFACE( '', #225, 83.1000000000000 );
#148 = CURVE_STYLE( '', #226, POSITIVE_LENGTH_MEASURE( 1.00000000000000E-006 ), #227 );
#149 = CIRCLE( '', #228, 83.1000000000000 );
#150 = SURFACE_STYLE_USAGE( .BOTH., #229 );
#151 = FACE_OUTER_BOUND( '', #230, .T. );
#152 = CYLINDRICAL_SURFACE( '', #231, 90.0000000000000 );
#153 = SURFACE_STYLE_USAGE( .BOTH., #232 );
#154 = CLOSED_SHELL( '', ( #51, #101, #73, #77, #67, #89 ) );
#155 = POINT_STYLE( ' ', #233, POSITIVE_LENGTH_MEASURE( 1.00000000000000E-006 ), #234 );
#156 = CARTESIAN_POINT( '', ( 5000.00000000000, 0.000000000000000, -83.1000000000000 ) );
#157 = POINT_STYLE( ' ', #235, POSITIVE_LENGTH_MEASURE( 1.00000000000000E-006 ), #236 );
#158 = CARTESIAN_POINT( '', ( 5000.00000000000, 1.01764788002640E-014, 83.1000000000000 ) );
#159 = CURVE_STYLE( '', #237, POSITIVE_LENGTH_MEASURE( 1.00000000000000E-006 ), #238 );
#160 = CIRCLE( '', #239, 90.0000000000000 );
#161 = CURVE_STYLE( '', #240, POSITIVE_LENGTH_MEASURE( 1.00000000000000E-006 ), #241 );
#162 = CIRCLE( '', #242, 83.1000000000000 );
#163 = SURFACE_STYLE_USAGE( .BOTH., #243 );
#164 = FACE_OUTER_BOUND( '', #244, .T. );
#165 = FACE_BOUND( '', #245, .T. );
#166 = PLANE( '', #246 );
#167 = CURVE_STYLE( '', #247, POSITIVE_LENGTH_MEASURE( 1.00000000000000E-006 ), #248 );
#168 = CIRCLE( '', #249, 83.1000000000000 );
#169 = POINT_STYLE( ' ', #250, POSITIVE_LENGTH_MEASURE( 1.00000000000000E-006 ), #251 );
#170 = CARTESIAN_POINT( '', ( 0.000000000000000, 1.10214571844014E-014, 90.0000000000000 ) );
#171 = POINT_STYLE( ' ', #252, POSITIVE_LENGTH_MEASURE( 1.00000000000000E-006 ), #253 );
#172 = CARTESIAN_POINT( '', ( 0.000000000000000, 1.01764788002640E-014, 83.1000000000000 ) );
#173 = POINT_STYLE( ' ', #254, POSITIVE_LENGTH_MEASURE( 1.00000000000000E-006 ), #255 );
#174 = CARTESIAN_POINT( '', ( 5000.00000000000, 1.10214571844014E-014, 90.0000000000000 ) );
#175 = CURVE_STYLE( '', #256, POSITIVE_LENGTH_MEASURE( 1.00000000000000E-006 ), #257 );
#176 = LINE( '', #258, #259 );
#177 = SURFACE_STYLE_USAGE( .BOTH., #260 );
#178 = FACE_OUTER_BOUND( '', #261, .T. );
#179 = CYLINDRICAL_SURFACE( '', #262, 83.1000000000000 );
#180 = POINT_STYLE( ' ', #263, POSITIVE_LENGTH_MEASURE( 1.00000000000000E-006 ), #264 );
#181 = CARTESIAN_POINT( '', ( 5000.00000000000, 0.000000000000000, -90.0000000000000 ) );
#182 = PRODUCT_CONTEXT( '', #37, 'mechanical' );
#183 = PRODUCT_DEFINITION_FORMATION_WITH_SPECIFIED_SOURCE( ' ', 'NONE', #104, .NOT_KNOWN. );
#184 = CARTESIAN_POINT( '', ( 0.000000000000000, 0.000000000000000, 0.000000000000000 ) );
#185 = DIRECTION( '', ( 0.000000000000000, 0.000000000000000, 1.00000000000000 ) );
#186 = DIRECTION( '', ( 1.00000000000000, 0.000000000000000, 0.000000000000000 ) );
#187 =  ( NAMED_UNIT( #112 )LENGTH_UNIT(  )SI_UNIT( .MILLI., .METRE. ) );
#188 = SURFACE_SIDE_STYLE( '', ( #266 ) );
#189 = EDGE_LOOP( '', ( #267, #268, #269, #270 ) );
#190 = AXIS2_PLACEMENT_3D( '', #271, #272, #273 );
#191 = DRAUGHTING_PRE_DEFINED_CURVE_FONT( 'continuous' );
#192 = COLOUR_RGB( '', 0.689999997615810, 0.689999997615810, 0.689999997615810 );
#193 = AXIS2_PLACEMENT_3D( '', #274, #275, #276 );
#194 = PRE_DEFINED_MARKER( '' );
#195 = COLOUR_RGB( '', 0.689999997615810, 0.689999997615810, 0.689999997615810 );
#196 = DRAUGHTING_PRE_DEFINED_CURVE_FONT( 'continuous' );
#197 = COLOUR_RGB( '', 0.689999997615810, 0.689999997615810, 0.689999997615810 );
#198 = AXIS2_PLACEMENT_3D( '', #277, #278, #279 );
#199 = DRAUGHTING_PRE_DEFINED_CURVE_FONT( 'continuous' );
#200 = COLOUR_RGB( '', 0.689999997615810, 0.689999997615810, 0.689999997615810 );
#201 = CARTESIAN_POINT( '', ( 0.000000000000000, -1.10214571844014E-014, -90.0000000000000 ) );
#202 = VECTOR( '', #280, 1.00000000000000 );
#203 = DRAUGHTING_PRE_DEFINED_CURVE_FONT( 'continuous' );
#204 = COLOUR_RGB( '', 0.689999997615810, 0.689999997615810, 0.689999997615810 );
#205 = CARTESIAN_POINT( '', ( 0.000000000000000, 1.01764788002640E-014, 83.1000000000000 ) );
#206 = VECTOR( '', #281, 1.00000000000000 );
#207 = DRAUGHTING_PRE_DEFINED_CURVE_FONT( 'continuous' );
#208 = COLOUR_RGB( '', 0.689999997615810, 0.689999997615810, 0.689999997615810 );
#209 = AXIS2_PLACEMENT_3D( '', #282, #283, #284 );
#210 = DRAUGHTING_PRE_DEFINED_CURVE_FONT( 'continuous' );
#211 = COLOUR_RGB( '', 0.689999997615810, 0.689999997615810, 0.689999997615810 );
#212 = CARTESIAN_POINT( '', ( 0.000000000000000, -1.01764788002640E-014, -83.1000000000000 ) );
#213 = VECTOR( '', #285, 1.00000000000000 );
#214 = SURFACE_SIDE_STYLE( '', ( #286 ) );
#215 = EDGE_LOOP( '', ( #287, #288 ) );
#216 = EDGE_LOOP( '', ( #289, #290 ) );
#217 = AXIS2_PLACEMENT_3D( '', #291, #292, #293 );
#218 = DRAUGHTING_PRE_DEFINED_CURVE_FONT( 'continuous' );
#219 = COLOUR_RGB( '', 0.689999997615810, 0.689999997615810, 0.689999997615810 );
#220 = AXIS2_PLACEMENT_3D( '', #294, #295, #296 );
#221 = PRE_DEFINED_MARKER( '' );
#222 = COLOUR_RGB( '', 0.689999997615810, 0.689999997615810, 0.689999997615810 );
#223 = SURFACE_SIDE_STYLE( '', ( #297 ) );
#224 = EDGE_LOOP( '', ( #298, #299, #300, #301 ) );
#225 = AXIS2_PLACEMENT_3D( '', #302, #303, #304 );
#226 = DRAUGHTING_PRE_DEFINED_CURVE_FONT( 'continuous' );
#227 = COLOUR_RGB( '', 0.689999997615810, 0.689999997615810, 0.689999997615810 );
#228 = AXIS2_PLACEMENT_3D( '', #305, #306, #307 );
#229 = SURFACE_SIDE_STYLE( '', ( #308 ) );
#230 = EDGE_LOOP( '', ( #309, #310, #311, #312 ) );
#231 = AXIS2_PLACEMENT_3D( '', #313, #314, #315 );
#232 = SURFACE_SIDE_STYLE( '', ( #316 ) );
#233 = PRE_DEFINED_MARKER( '' );
#234 = COLOUR_RGB( '', 0.689999997615810, 0.689999997615810, 0.689999997615810 );
#235 = PRE_DEFINED_MARKER( '' );
#236 = COLOUR_RGB( '', 0.689999997615810, 0.689999997615810, 0.689999997615810 );
#237 = DRAUGHTING_PRE_DEFINED_CURVE_FONT( 'continuous' );
#238 = COLOUR_RGB( '', 0.689999997615810, 0.689999997615810, 0.689999997615810 );
#239 = AXIS2_PLACEMENT_3D( '', #317, #318, #319 );
#240 = DRAUGHTING_PRE_DEFINED_CURVE_FONT( 'continuous' );
#241 = COLOUR_RGB( '', 0.689999997615810, 0.689999997615810, 0.689999997615810 );
#242 = AXIS2_PLACEMENT_3D( '', #320, #321, #322 );
#243 = SURFACE_SIDE_STYLE( '', ( #323 ) );
#244 = EDGE_LOOP( '', ( #324, #325 ) );
#245 = EDGE_LOOP( '', ( #326, #327 ) );
#246 = AXIS2_PLACEMENT_3D( '', #328, #329, #330 );
#247 = DRAUGHTING_PRE_DEFINED_CURVE_FONT( 'continuous' );
#248 = COLOUR_RGB( '', 0.689999997615810, 0.689999997615810, 0.689999997615810 );
#249 = AXIS2_PLACEMENT_3D( '', #331, #332, #333 );
#250 = PRE_DEFINED_MARKER( '' );
#251 = COLOUR_RGB( '', 0.689999997615810, 0.689999997615810, 0.689999997615810 );
#252 = PRE_DEFINED_MARKER( '' );
#253 = COLOUR_RGB( '', 0.689999997615810, 0.689999997615810, 0.689999997615810 );
#254 = PRE_DEFINED_MARKER( '' );
#255 = COLOUR_RGB( '', 0.689999997615810, 0.689999997615810, 0.689999997615810 );
#256 = DRAUGHTING_PRE_DEFINED_CURVE_FONT( 'continuous' );
#257 = COLOUR_RGB( '', 0.689999997615810, 0.689999997615810, 0.689999997615810 );
#258 = CARTESIAN_POINT( '', ( 0.000000000000000, 1.10214571844014E-014, 90.0000000000000 ) );
#259 = VECTOR( '', #334, 1.00000000000000 );
#260 = SURFACE_SIDE_STYLE( '', ( #335 ) );
#261 = EDGE_LOOP( '', ( #336, #337, #338, #339 ) );
#262 = AXIS2_PLACEMENT_3D( '', #340, #341, #342 );
#263 = PRE_DEFINED_MARKER( '' );
#264 = COLOUR_RGB( '', 0.689999997615810, 0.689999997615810, 0.689999997615810 );
#266 = SURFACE_STYLE_FILL_AREA( #343 );
#267 = ORIENTED_EDGE( '', *, *, #59, .F. );
#268 = ORIENTED_EDGE( '', *, *, #69, .T. );
#269 = ORIENTED_EDGE( '', *, *, #99, .F. );
#270 = ORIENTED_EDGE( '', *, *, #85, .T. );
#271 = CARTESIAN_POINT( '', ( 0.000000000000000, 0.000000000000000, 0.000000000000000 ) );
#272 = DIRECTION( '', ( -1.00000000000000, -0.000000000000000, -0.000000000000000 ) );
#273 = DIRECTION( '', ( 0.000000000000000, 0.000000000000000, -1.00000000000000 ) );
#274 = CARTESIAN_POINT( '', ( 0.000000000000000, 0.000000000000000, 0.000000000000000 ) );
#275 = DIRECTION( '', ( 1.00000000000000, -0.000000000000000, 0.000000000000000 ) );
#276 = DIRECTION( '', ( 0.000000000000000, 0.000000000000000, -1.00000000000000 ) );
#277 = CARTESIAN_POINT( '', ( 5000.00000000000, 0.000000000000000, 0.000000000000000 ) );
#278 = DIRECTION( '', ( -1.00000000000000, 0.000000000000000, 0.000000000000000 ) );
#279 = DIRECTION( '', ( 0.000000000000000, 0.000000000000000, -1.00000000000000 ) );
#280 = DIRECTION( '', ( 1.00000000000000, 0.000000000000000, 0.000000000000000 ) );
#281 = DIRECTION( '', ( -1.00000000000000, 0.000000000000000, 0.000000000000000 ) );
#282 = CARTESIAN_POINT( '', ( 5000.00000000000, 0.000000000000000, 0.000000000000000 ) );
#283 = DIRECTION( '', ( 1.00000000000000, 0.000000000000000, 0.000000000000000 ) );
#284 = DIRECTION( '', ( 0.000000000000000, 0.000000000000000, -1.00000000000000 ) );
#285 = DIRECTION( '', ( 1.00000000000000, 0.000000000000000, 0.000000000000000 ) );
#286 = SURFACE_STYLE_FILL_AREA( #344 );
#287 = ORIENTED_EDGE( '', *, *, #57, .F. );
#288 = ORIENTED_EDGE( '', *, *, #85, .F. );
#289 = ORIENTED_EDGE( '', *, *, #87, .F. );
#290 = ORIENTED_EDGE( '', *, *, #63, .F. );
#291 = CARTESIAN_POINT( '', ( 5000.00000000000, 0.000000000000000, 0.000000000000000 ) );
#292 = DIRECTION( '', ( 1.00000000000000, 0.000000000000000, 0.000000000000000 ) );
#293 = DIRECTION( '', ( 0.000000000000000, 0.000000000000000, -1.00000000000000 ) );
#294 = CARTESIAN_POINT( '', ( 0.000000000000000, 0.000000000000000, 0.000000000000000 ) );
#295 = DIRECTION( '', ( 1.00000000000000, -0.000000000000000, 0.000000000000000 ) );
#296 = DIRECTION( '', ( 0.000000000000000, 0.000000000000000, -1.00000000000000 ) );
#297 = SURFACE_STYLE_FILL_AREA( #345 );
#298 = ORIENTED_EDGE( '', *, *, #65, .T. );
#299 = ORIENTED_EDGE( '', *, *, #87, .T. );
#300 = ORIENTED_EDGE( '', *, *, #61, .T. );
#301 = ORIENTED_EDGE( '', *, *, #91, .F. );
#302 = CARTESIAN_POINT( '', ( 0.000000000000000, 0.000000000000000, 0.000000000000000 ) );
#303 = DIRECTION( '', ( -1.00000000000000, -0.000000000000000, -0.000000000000000 ) );
#304 = DIRECTION( '', ( 0.000000000000000, 0.000000000000000, -1.00000000000000 ) );
#305 = CARTESIAN_POINT( '', ( 0.000000000000000, 0.000000000000000, 0.000000000000000 ) );
#306 = DIRECTION( '', ( 1.00000000000000, -0.000000000000000, 0.000000000000000 ) );
#307 = DIRECTION( '', ( 0.000000000000000, 0.000000000000000, -1.00000000000000 ) );
#308 = SURFACE_STYLE_FILL_AREA( #346 );
#309 = ORIENTED_EDGE( '', *, *, #59, .T. );
#310 = ORIENTED_EDGE( '', *, *, #57, .T. );
#311 = ORIENTED_EDGE( '', *, *, #99, .T. );
#312 = ORIENTED_EDGE( '', *, *, #53, .T. );
#313 = CARTESIAN_POINT( '', ( 0.000000000000000, 0.000000000000000, 0.000000000000000 ) );
#314 = DIRECTION( '', ( -1.00000000000000, -0.000000000000000, -0.000000000000000 ) );
#315 = DIRECTION( '', ( 0.000000000000000, 0.000000000000000, -1.00000000000000 ) );
#316 = SURFACE_STYLE_FILL_AREA( #347 );
#317 = CARTESIAN_POINT( '', ( 5000.00000000000, 0.000000000000000, 0.000000000000000 ) );
#318 = DIRECTION( '', ( -1.00000000000000, 0.000000000000000, 0.000000000000000 ) );
#319 = DIRECTION( '', ( 0.000000000000000, 0.000000000000000, -1.00000000000000 ) );
#320 = CARTESIAN_POINT( '', ( 5000.00000000000, 0.000000000000000, 0.000000000000000 ) );
#321 = DIRECTION( '', ( 1.00000000000000, 0.000000000000000, 0.000000000000000 ) );
#322 = DIRECTION( '', ( 0.000000000000000, 0.000000000000000, -1.00000000000000 ) );
#323 = SURFACE_STYLE_FILL_AREA( #348 );
#324 = ORIENTED_EDGE( '', *, *, #69, .F. );
#325 = ORIENTED_EDGE( '', *, *, #53, .F. );
#326 = ORIENTED_EDGE( '', *, *, #91, .T. );
#327 = ORIENTED_EDGE( '', *, *, #75, .T. );
#328 = CARTESIAN_POINT( '', ( 0.000000000000000, 0.000000000000000, 0.000000000000000 ) );
#329 = DIRECTION( '', ( 1.00000000000000, 0.000000000000000, 0.000000000000000 ) );
#330 = DIRECTION( '', ( 0.000000000000000, 0.000000000000000, -1.00000000000000 ) );
#331 = CARTESIAN_POINT( '', ( 0.000000000000000, 0.000000000000000, 0.000000000000000 ) );
#332 = DIRECTION( '', ( 1.00000000000000, -0.000000000000000, 0.000000000000000 ) );
#333 = DIRECTION( '', ( 0.000000000000000, 0.000000000000000, -1.00000000000000 ) );
#334 = DIRECTION( '', ( -1.00000000000000, -0.000000000000000, -0.000000000000000 ) );
#335 = SURFACE_STYLE_FILL_AREA( #349 );
#336 = ORIENTED_EDGE( '', *, *, #65, .F. );
#337 = ORIENTED_EDGE( '', *, *, #75, .F. );
#338 = ORIENTED_EDGE( '', *, *, #61, .F. );
#339 = ORIENTED_EDGE( '', *, *, #63, .T. );
#340 = CARTESIAN_POINT( '', ( 0.000000000000000, 0.000000000000000, 0.000000000000000 ) );
#341 = DIRECTION( '', ( -1.00000000000000, -0.000000000000000, -0.000000000000000 ) );
#342 = DIRECTION( '', ( 0.000000000000000, 0.000000000000000, -1.00000000000000 ) );
#343 = FILL_AREA_STYLE( '', ( #350 ) );
#344 = FILL_AREA_STYLE( '', ( #351 ) );
#345 = FILL_AREA_STYLE( '', ( #352 ) );
#346 = FILL_AREA_STYLE( '', ( #353 ) );
#347 = FILL_AREA_STYLE( '', ( #354 ) );
#348 = FILL_AREA_STYLE( '', ( #355 ) );
#349 = FILL_AREA_STYLE( '', ( #356 ) );
#350 = FILL_AREA_STYLE_COLOUR( '', #357 );
#351 = FILL_AREA_STYLE_COLOUR( '', #358 );
#352 = FILL_AREA_STYLE_COLOUR( '', #359 );
#353 = FILL_AREA_STYLE_COLOUR( '', #360 );
#354 = FILL_AREA_STYLE_COLOUR( '', #361 );
#355 = FILL_AREA_STYLE_COLOUR( '', #362 );
#356 = FILL_AREA_STYLE_COLOUR( '', #363 );
#357 = COLOUR_RGB( '', 0.689999997615810, 0.689999997615810, 0.689999997615810 );
#358 = COLOUR_RGB( '', 0.689999997615810, 0.689999997615810, 0.689999997615810 );
#359 = COLOUR_RGB( '', 0.689999997615810, 0.689999997615810, 0.689999997615810 );
#360 = COLOUR_RGB( '', 0.689999997615810, 0.689999997615810, 0.689999997615810 );
#361 = COLOUR_RGB( '', 0.689999997615810, 0.689999997615810, 0.689999997615810 );
#362 = COLOUR_RGB( '', 0.689999997615810, 0.689999997615810, 0.689999997615810 );
#363 = COLOUR_RGB( '', 0.689999997615810, 0.689999997615810, 0.689999997615810 );
ENDSEC;
END-ISO-10303-21;
