ISO-10303-21;
HEADER;
FILE_DESCRIPTION( ( '' ), '1' );
FILE_NAME( '//se01002/users/anro/AGRU_12705012533_PPH_grau_Rohr__5m_125X3_9__SDR33__ISO_S-16_10.stp', '2018-02-07T07:56:07', ( '' ), ( '' ), ' ', ' ', ' ' );
FILE_SCHEMA( ( 'automotive_design' ) );
ENDSEC;
DATA;
#1 = MECHANICAL_DESIGN_GEOMETRIC_PRESENTATION_REPRESENTATION( ' ', ( #10, #11, #12, #13, #14, #15, #16, #17, #18, #19, #20, #21, #22, #23, #24, #25, #26, #27, #28, #29, #30, #31, #32, #33, #34, #35, #36 ), #6 );
#2 = PRODUCT_DEFINITION_CONTEXT( '', #37, 'design' );
#3 = APPLICATION_PROTOCOL_DEFINITION( 'INTERNATIONAL STANDARD', 'automotive_design', 1994, #37 );
#4 = PRODUCT_CATEGORY_RELATIONSHIP( 'NONE', 'NONE', #38, #39 );
#5 = SHAPE_DEFINITION_REPRESENTATION( #40, #41 );
#6 =  ( GEOMETRIC_REPRESENTATION_CONTEXT( 3 )GLOBAL_UNCERTAINTY_ASSIGNED_CONTEXT( ( #44 ) )GLOBAL_UNIT_ASSIGNED_CONTEXT( ( #46, #47, #48 ) )REPRESENTATION_CONTEXT( 'NONE', 'WORKSPACE' ) );
#10 = STYLED_ITEM( '', ( #50 ), #51 );
#11 = STYLED_ITEM( '', ( #52 ), #53 );
#12 = STYLED_ITEM( '', ( #54 ), #55 );
#13 = STYLED_ITEM( '', ( #56 ), #57 );
#14 = STYLED_ITEM( '', ( #58 ), #59 );
#15 = STYLED_ITEM( '', ( #60 ), #61 );
#16 = STYLED_ITEM( '', ( #62 ), #63 );
#17 = STYLED_ITEM( '', ( #64 ), #65 );
#18 = STYLED_ITEM( '', ( #66 ), #67 );
#19 = STYLED_ITEM( '', ( #68 ), #69 );
#20 = STYLED_ITEM( '', ( #70 ), #71 );
#21 = STYLED_ITEM( '', ( #72 ), #73 );
#22 = STYLED_ITEM( '', ( #74 ), #75 );
#23 = STYLED_ITEM( '', ( #76 ), #77 );
#24 = STYLED_ITEM( '', ( #78 ), #79 );
#25 = STYLED_ITEM( '', ( #80 ), #81 );
#26 = STYLED_ITEM( '', ( #82 ), #83 );
#27 = STYLED_ITEM( '', ( #84 ), #85 );
#28 = STYLED_ITEM( '', ( #86 ), #87 );
#29 = STYLED_ITEM( '', ( #88 ), #89 );
#30 = STYLED_ITEM( '', ( #90 ), #91 );
#31 = STYLED_ITEM( '', ( #92 ), #93 );
#32 = STYLED_ITEM( '', ( #94 ), #95 );
#33 = STYLED_ITEM( '', ( #96 ), #97 );
#34 = STYLED_ITEM( '', ( #98 ), #99 );
#35 = STYLED_ITEM( '', ( #100 ), #101 );
#36 = STYLED_ITEM( '', ( #102 ), #103 );
#37 = APPLICATION_CONTEXT( ' ' );
#38 = PRODUCT_CATEGORY( 'part', 'NONE' );
#39 = PRODUCT_RELATED_PRODUCT_CATEGORY( 'detail', ' ', ( #104 ) );
#40 = PRODUCT_DEFINITION_SHAPE( 'NONE', 'NONE', #105 );
#41 = ADVANCED_BREP_SHAPE_REPRESENTATION( '1', ( #53, #106 ), #6 );
#44 = UNCERTAINTY_MEASURE_WITH_UNIT( LENGTH_MEASURE( 1.00000000000000E-006 ), #46, '', '' );
#46 =  ( CONVERSION_BASED_UNIT( 'MILLIMETRE', #109 )LENGTH_UNIT(  )NAMED_UNIT( #112 ) );
#47 =  ( NAMED_UNIT( #114 )PLANE_ANGLE_UNIT(  )SI_UNIT( $, .RADIAN. ) );
#48 =  ( NAMED_UNIT( #114 )SOLID_ANGLE_UNIT(  )SI_UNIT( $, .STERADIAN. ) );
#50 = PRESENTATION_STYLE_ASSIGNMENT( ( #120 ) );
#51 = ADVANCED_FACE( '', ( #121 ), #122, .T. );
#52 = PRESENTATION_STYLE_ASSIGNMENT( ( #123 ) );
#53 = MANIFOLD_SOLID_BREP( '1', #124 );
#54 = PRESENTATION_STYLE_ASSIGNMENT( ( #125 ) );
#55 = VERTEX_POINT( '', #126 );
#56 = PRESENTATION_STYLE_ASSIGNMENT( ( #127 ) );
#57 = EDGE_CURVE( '', #81, #69, #128, .T. );
#58 = PRESENTATION_STYLE_ASSIGNMENT( ( #129 ) );
#59 = EDGE_CURVE( '', #77, #55, #130, .T. );
#60 = PRESENTATION_STYLE_ASSIGNMENT( ( #131 ) );
#61 = VERTEX_POINT( '', #132 );
#62 = PRESENTATION_STYLE_ASSIGNMENT( ( #133 ) );
#63 = EDGE_CURVE( '', #95, #61, #134, .T. );
#64 = PRESENTATION_STYLE_ASSIGNMENT( ( #135 ) );
#65 = ADVANCED_FACE( '', ( #136, #137 ), #138, .F. );
#66 = PRESENTATION_STYLE_ASSIGNMENT( ( #139 ) );
#67 = EDGE_CURVE( '', #77, #97, #140, .T. );
#68 = PRESENTATION_STYLE_ASSIGNMENT( ( #141 ) );
#69 = VERTEX_POINT( '', #142 );
#70 = PRESENTATION_STYLE_ASSIGNMENT( ( #143 ) );
#71 = EDGE_CURVE( '', #69, #61, #144, .T. );
#72 = PRESENTATION_STYLE_ASSIGNMENT( ( #145 ) );
#73 = EDGE_CURVE( '', #69, #81, #146, .T. );
#74 = PRESENTATION_STYLE_ASSIGNMENT( ( #147 ) );
#75 = EDGE_CURVE( '', #55, #85, #148, .T. );
#76 = PRESENTATION_STYLE_ASSIGNMENT( ( #149 ) );
#77 = VERTEX_POINT( '', #150 );
#78 = PRESENTATION_STYLE_ASSIGNMENT( ( #151 ) );
#79 = EDGE_CURVE( '', #95, #81, #152, .T. );
#80 = PRESENTATION_STYLE_ASSIGNMENT( ( #153 ) );
#81 = VERTEX_POINT( '', #154 );
#82 = PRESENTATION_STYLE_ASSIGNMENT( ( #155 ) );
#83 = ADVANCED_FACE( '', ( #156, #157 ), #158, .T. );
#84 = PRESENTATION_STYLE_ASSIGNMENT( ( #159 ) );
#85 = VERTEX_POINT( '', #160 );
#86 = PRESENTATION_STYLE_ASSIGNMENT( ( #161 ) );
#87 = ADVANCED_FACE( '', ( #162 ), #163, .F. );
#88 = PRESENTATION_STYLE_ASSIGNMENT( ( #164 ) );
#89 = EDGE_CURVE( '', #85, #55, #165, .T. );
#90 = PRESENTATION_STYLE_ASSIGNMENT( ( #166 ) );
#91 = ADVANCED_FACE( '', ( #167 ), #168, .F. );
#92 = PRESENTATION_STYLE_ASSIGNMENT( ( #169 ) );
#93 = ADVANCED_FACE( '', ( #170 ), #171, .T. );
#94 = PRESENTATION_STYLE_ASSIGNMENT( ( #172 ) );
#95 = VERTEX_POINT( '', #173 );
#96 = PRESENTATION_STYLE_ASSIGNMENT( ( #174 ) );
#97 = VERTEX_POINT( '', #175 );
#98 = PRESENTATION_STYLE_ASSIGNMENT( ( #176 ) );
#99 = EDGE_CURVE( '', #61, #95, #177, .T. );
#100 = PRESENTATION_STYLE_ASSIGNMENT( ( #178 ) );
#101 = EDGE_CURVE( '', #85, #97, #179, .T. );
#102 = PRESENTATION_STYLE_ASSIGNMENT( ( #180 ) );
#103 = EDGE_CURVE( '', #97, #77, #181, .T. );
#104 = PRODUCT( '1', '1', 'PART-1-DESC', ( #182 ) );
#105 = PRODUCT_DEFINITION( 'NONE', 'NONE', #183, #2 );
#106 = AXIS2_PLACEMENT_3D( '', #184, #185, #186 );
#109 = LENGTH_MEASURE_WITH_UNIT( LENGTH_MEASURE( 1.00000000000000 ), #187 );
#112 = DIMENSIONAL_EXPONENTS( 1.00000000000000, 0.000000000000000, 0.000000000000000, 0.000000000000000, 0.000000000000000, 0.000000000000000, 0.000000000000000 );
#114 = DIMENSIONAL_EXPONENTS( 0.000000000000000, 0.000000000000000, 0.000000000000000, 0.000000000000000, 0.000000000000000, 0.000000000000000, 0.000000000000000 );
#120 = SURFACE_STYLE_USAGE( .BOTH., #188 );
#121 = FACE_OUTER_BOUND( '', #189, .T. );
#122 = CYLINDRICAL_SURFACE( '', #190, 62.5000000000000 );
#123 = SURFACE_STYLE_USAGE( .BOTH., #191 );
#124 = CLOSED_SHELL( '', ( #51, #87, #91, #93, #83, #65 ) );
#125 = POINT_STYLE( ' ', #192, POSITIVE_LENGTH_MEASURE( 1.00000000000000E-006 ), #193 );
#126 = CARTESIAN_POINT( '', ( 0.000000000000000, 7.17619323339913E-015, 58.6000000000000 ) );
#127 = CURVE_STYLE( '', #194, POSITIVE_LENGTH_MEASURE( 1.00000000000000E-006 ), #195 );
#128 = CIRCLE( '', #196, 62.5000000000000 );
#129 = CURVE_STYLE( '', #197, POSITIVE_LENGTH_MEASURE( 1.00000000000000E-006 ), #198 );
#130 = LINE( '', #199, #200 );
#131 = POINT_STYLE( ' ', #201, POSITIVE_LENGTH_MEASURE( 1.00000000000000E-006 ), #202 );
#132 = CARTESIAN_POINT( '', ( 5000.00000000000, 0.000000000000000, -62.5000000000000 ) );
#133 = CURVE_STYLE( '', #203, POSITIVE_LENGTH_MEASURE( 1.00000000000000E-006 ), #204 );
#134 = CIRCLE( '', #205, 62.5000000000000 );
#135 = SURFACE_STYLE_USAGE( .BOTH., #206 );
#136 = FACE_OUTER_BOUND( '', #207, .T. );
#137 = FACE_BOUND( '', #208, .T. );
#138 = PLANE( '', #209 );
#139 = CURVE_STYLE( '', #210, POSITIVE_LENGTH_MEASURE( 1.00000000000000E-006 ), #211 );
#140 = CIRCLE( '', #212, 58.6000000000000 );
#141 = POINT_STYLE( ' ', #213, POSITIVE_LENGTH_MEASURE( 1.00000000000000E-006 ), #214 );
#142 = CARTESIAN_POINT( '', ( 0.000000000000000, 0.000000000000000, -62.5000000000000 ) );
#143 = CURVE_STYLE( '', #215, POSITIVE_LENGTH_MEASURE( 1.00000000000000E-006 ), #216 );
#144 = LINE( '', #217, #218 );
#145 = CURVE_STYLE( '', #219, POSITIVE_LENGTH_MEASURE( 1.00000000000000E-006 ), #220 );
#146 = CIRCLE( '', #221, 62.5000000000000 );
#147 = CURVE_STYLE( '', #222, POSITIVE_LENGTH_MEASURE( 1.00000000000000E-006 ), #223 );
#148 = CIRCLE( '', #224, 58.6000000000000 );
#149 = POINT_STYLE( ' ', #225, POSITIVE_LENGTH_MEASURE( 1.00000000000000E-006 ), #226 );
#150 = CARTESIAN_POINT( '', ( 5000.00000000000, 7.17619323339913E-015, 58.6000000000000 ) );
#151 = CURVE_STYLE( '', #227, POSITIVE_LENGTH_MEASURE( 1.00000000000000E-006 ), #228 );
#152 = LINE( '', #229, #230 );
#153 = POINT_STYLE( ' ', #231, POSITIVE_LENGTH_MEASURE( 1.00000000000000E-006 ), #232 );
#154 = CARTESIAN_POINT( '', ( 0.000000000000000, 7.65378971138986E-015, 62.5000000000000 ) );
#155 = SURFACE_STYLE_USAGE( .BOTH., #233 );
#156 = FACE_OUTER_BOUND( '', #234, .T. );
#157 = FACE_BOUND( '', #235, .T. );
#158 = PLANE( '', #236 );
#159 = POINT_STYLE( ' ', #237, POSITIVE_LENGTH_MEASURE( 1.00000000000000E-006 ), #238 );
#160 = CARTESIAN_POINT( '', ( 0.000000000000000, 0.000000000000000, -58.6000000000000 ) );
#161 = SURFACE_STYLE_USAGE( .BOTH., #239 );
#162 = FACE_OUTER_BOUND( '', #240, .T. );
#163 = CYLINDRICAL_SURFACE( '', #241, 58.6000000000000 );
#164 = CURVE_STYLE( '', #242, POSITIVE_LENGTH_MEASURE( 1.00000000000000E-006 ), #243 );
#165 = CIRCLE( '', #244, 58.6000000000000 );
#166 = SURFACE_STYLE_USAGE( .BOTH., #245 );
#167 = FACE_OUTER_BOUND( '', #246, .T. );
#168 = CYLINDRICAL_SURFACE( '', #247, 58.6000000000000 );
#169 = SURFACE_STYLE_USAGE( .BOTH., #248 );
#170 = FACE_OUTER_BOUND( '', #249, .T. );
#171 = CYLINDRICAL_SURFACE( '', #250, 62.5000000000000 );
#172 = POINT_STYLE( ' ', #251, POSITIVE_LENGTH_MEASURE( 1.00000000000000E-006 ), #252 );
#173 = CARTESIAN_POINT( '', ( 5000.00000000000, 7.65378971138986E-015, 62.5000000000000 ) );
#174 = POINT_STYLE( ' ', #253, POSITIVE_LENGTH_MEASURE( 1.00000000000000E-006 ), #254 );
#175 = CARTESIAN_POINT( '', ( 5000.00000000000, 0.000000000000000, -58.6000000000000 ) );
#176 = CURVE_STYLE( '', #255, POSITIVE_LENGTH_MEASURE( 1.00000000000000E-006 ), #256 );
#177 = CIRCLE( '', #257, 62.5000000000000 );
#178 = CURVE_STYLE( '', #258, POSITIVE_LENGTH_MEASURE( 1.00000000000000E-006 ), #259 );
#179 = LINE( '', #260, #261 );
#180 = CURVE_STYLE( '', #262, POSITIVE_LENGTH_MEASURE( 1.00000000000000E-006 ), #263 );
#181 = CIRCLE( '', #264, 58.6000000000000 );
#182 = PRODUCT_CONTEXT( '', #37, 'mechanical' );
#183 = PRODUCT_DEFINITION_FORMATION_WITH_SPECIFIED_SOURCE( ' ', 'NONE', #104, .NOT_KNOWN. );
#184 = CARTESIAN_POINT( '', ( 0.000000000000000, 0.000000000000000, 0.000000000000000 ) );
#185 = DIRECTION( '', ( 0.000000000000000, 0.000000000000000, 1.00000000000000 ) );
#186 = DIRECTION( '', ( 1.00000000000000, 0.000000000000000, 0.000000000000000 ) );
#187 =  ( NAMED_UNIT( #112 )LENGTH_UNIT(  )SI_UNIT( .MILLI., .METRE. ) );
#188 = SURFACE_SIDE_STYLE( '', ( #266 ) );
#189 = EDGE_LOOP( '', ( #267, #268, #269, #270 ) );
#190 = AXIS2_PLACEMENT_3D( '', #271, #272, #273 );
#191 = SURFACE_SIDE_STYLE( '', ( #274 ) );
#192 = PRE_DEFINED_MARKER( '' );
#193 = COLOUR_RGB( '', 0.689999997615810, 0.689999997615810, 0.689999997615810 );
#194 = DRAUGHTING_PRE_DEFINED_CURVE_FONT( 'continuous' );
#195 = COLOUR_RGB( '', 0.689999997615810, 0.689999997615810, 0.689999997615810 );
#196 = AXIS2_PLACEMENT_3D( '', #275, #276, #277 );
#197 = DRAUGHTING_PRE_DEFINED_CURVE_FONT( 'continuous' );
#198 = COLOUR_RGB( '', 0.689999997615810, 0.689999997615810, 0.689999997615810 );
#199 = CARTESIAN_POINT( '', ( 0.000000000000000, 7.17619323339913E-015, 58.6000000000000 ) );
#200 = VECTOR( '', #278, 1.00000000000000 );
#201 = PRE_DEFINED_MARKER( '' );
#202 = COLOUR_RGB( '', 0.689999997615810, 0.689999997615810, 0.689999997615810 );
#203 = DRAUGHTING_PRE_DEFINED_CURVE_FONT( 'continuous' );
#204 = COLOUR_RGB( '', 0.689999997615810, 0.689999997615810, 0.689999997615810 );
#205 = AXIS2_PLACEMENT_3D( '', #279, #280, #281 );
#206 = SURFACE_SIDE_STYLE( '', ( #282 ) );
#207 = EDGE_LOOP( '', ( #283, #284 ) );
#208 = EDGE_LOOP( '', ( #285, #286 ) );
#209 = AXIS2_PLACEMENT_3D( '', #287, #288, #289 );
#210 = DRAUGHTING_PRE_DEFINED_CURVE_FONT( 'continuous' );
#211 = COLOUR_RGB( '', 0.689999997615810, 0.689999997615810, 0.689999997615810 );
#212 = AXIS2_PLACEMENT_3D( '', #290, #291, #292 );
#213 = PRE_DEFINED_MARKER( '' );
#214 = COLOUR_RGB( '', 0.689999997615810, 0.689999997615810, 0.689999997615810 );
#215 = DRAUGHTING_PRE_DEFINED_CURVE_FONT( 'continuous' );
#216 = COLOUR_RGB( '', 0.689999997615810, 0.689999997615810, 0.689999997615810 );
#217 = CARTESIAN_POINT( '', ( 0.000000000000000, -7.65378971138986E-015, -62.5000000000000 ) );
#218 = VECTOR( '', #293, 1.00000000000000 );
#219 = DRAUGHTING_PRE_DEFINED_CURVE_FONT( 'continuous' );
#220 = COLOUR_RGB( '', 0.689999997615810, 0.689999997615810, 0.689999997615810 );
#221 = AXIS2_PLACEMENT_3D( '', #294, #295, #296 );
#222 = DRAUGHTING_PRE_DEFINED_CURVE_FONT( 'continuous' );
#223 = COLOUR_RGB( '', 0.689999997615810, 0.689999997615810, 0.689999997615810 );
#224 = AXIS2_PLACEMENT_3D( '', #297, #298, #299 );
#225 = PRE_DEFINED_MARKER( '' );
#226 = COLOUR_RGB( '', 0.689999997615810, 0.689999997615810, 0.689999997615810 );
#227 = DRAUGHTING_PRE_DEFINED_CURVE_FONT( 'continuous' );
#228 = COLOUR_RGB( '', 0.689999997615810, 0.689999997615810, 0.689999997615810 );
#229 = CARTESIAN_POINT( '', ( 0.000000000000000, 7.65378971138986E-015, 62.5000000000000 ) );
#230 = VECTOR( '', #300, 1.00000000000000 );
#231 = PRE_DEFINED_MARKER( '' );
#232 = COLOUR_RGB( '', 0.689999997615810, 0.689999997615810, 0.689999997615810 );
#233 = SURFACE_SIDE_STYLE( '', ( #301 ) );
#234 = EDGE_LOOP( '', ( #302, #303 ) );
#235 = EDGE_LOOP( '', ( #304, #305 ) );
#236 = AXIS2_PLACEMENT_3D( '', #306, #307, #308 );
#237 = PRE_DEFINED_MARKER( '' );
#238 = COLOUR_RGB( '', 0.689999997615810, 0.689999997615810, 0.689999997615810 );
#239 = SURFACE_SIDE_STYLE( '', ( #309 ) );
#240 = EDGE_LOOP( '', ( #310, #311, #312, #313 ) );
#241 = AXIS2_PLACEMENT_3D( '', #314, #315, #316 );
#242 = DRAUGHTING_PRE_DEFINED_CURVE_FONT( 'continuous' );
#243 = COLOUR_RGB( '', 0.689999997615810, 0.689999997615810, 0.689999997615810 );
#244 = AXIS2_PLACEMENT_3D( '', #317, #318, #319 );
#245 = SURFACE_SIDE_STYLE( '', ( #320 ) );
#246 = EDGE_LOOP( '', ( #321, #322, #323, #324 ) );
#247 = AXIS2_PLACEMENT_3D( '', #325, #326, #327 );
#248 = SURFACE_SIDE_STYLE( '', ( #328 ) );
#249 = EDGE_LOOP( '', ( #329, #330, #331, #332 ) );
#250 = AXIS2_PLACEMENT_3D( '', #333, #334, #335 );
#251 = PRE_DEFINED_MARKER( '' );
#252 = COLOUR_RGB( '', 0.689999997615810, 0.689999997615810, 0.689999997615810 );
#253 = PRE_DEFINED_MARKER( '' );
#254 = COLOUR_RGB( '', 0.689999997615810, 0.689999997615810, 0.689999997615810 );
#255 = DRAUGHTING_PRE_DEFINED_CURVE_FONT( 'continuous' );
#256 = COLOUR_RGB( '', 0.689999997615810, 0.689999997615810, 0.689999997615810 );
#257 = AXIS2_PLACEMENT_3D( '', #336, #337, #338 );
#258 = DRAUGHTING_PRE_DEFINED_CURVE_FONT( 'continuous' );
#259 = COLOUR_RGB( '', 0.689999997615810, 0.689999997615810, 0.689999997615810 );
#260 = CARTESIAN_POINT( '', ( 0.000000000000000, -7.17619323339913E-015, -58.6000000000000 ) );
#261 = VECTOR( '', #339, 1.00000000000000 );
#262 = DRAUGHTING_PRE_DEFINED_CURVE_FONT( 'continuous' );
#263 = COLOUR_RGB( '', 0.689999997615810, 0.689999997615810, 0.689999997615810 );
#264 = AXIS2_PLACEMENT_3D( '', #340, #341, #342 );
#266 = SURFACE_STYLE_FILL_AREA( #343 );
#267 = ORIENTED_EDGE( '', *, *, #71, .F. );
#268 = ORIENTED_EDGE( '', *, *, #73, .T. );
#269 = ORIENTED_EDGE( '', *, *, #79, .F. );
#270 = ORIENTED_EDGE( '', *, *, #63, .T. );
#271 = CARTESIAN_POINT( '', ( 0.000000000000000, 0.000000000000000, 0.000000000000000 ) );
#272 = DIRECTION( '', ( -1.00000000000000, -0.000000000000000, -0.000000000000000 ) );
#273 = DIRECTION( '', ( 0.000000000000000, 0.000000000000000, -1.00000000000000 ) );
#274 = SURFACE_STYLE_FILL_AREA( #344 );
#275 = CARTESIAN_POINT( '', ( 0.000000000000000, 0.000000000000000, 0.000000000000000 ) );
#276 = DIRECTION( '', ( 1.00000000000000, -0.000000000000000, 0.000000000000000 ) );
#277 = DIRECTION( '', ( 0.000000000000000, 0.000000000000000, -1.00000000000000 ) );
#278 = DIRECTION( '', ( -1.00000000000000, 0.000000000000000, 0.000000000000000 ) );
#279 = CARTESIAN_POINT( '', ( 5000.00000000000, 0.000000000000000, 0.000000000000000 ) );
#280 = DIRECTION( '', ( -1.00000000000000, 0.000000000000000, 0.000000000000000 ) );
#281 = DIRECTION( '', ( 0.000000000000000, 0.000000000000000, -1.00000000000000 ) );
#282 = SURFACE_STYLE_FILL_AREA( #345 );
#283 = ORIENTED_EDGE( '', *, *, #73, .F. );
#284 = ORIENTED_EDGE( '', *, *, #57, .F. );
#285 = ORIENTED_EDGE( '', *, *, #89, .T. );
#286 = ORIENTED_EDGE( '', *, *, #75, .T. );
#287 = CARTESIAN_POINT( '', ( 0.000000000000000, 0.000000000000000, 0.000000000000000 ) );
#288 = DIRECTION( '', ( 1.00000000000000, 0.000000000000000, 0.000000000000000 ) );
#289 = DIRECTION( '', ( 0.000000000000000, 0.000000000000000, -1.00000000000000 ) );
#290 = CARTESIAN_POINT( '', ( 5000.00000000000, 0.000000000000000, 0.000000000000000 ) );
#291 = DIRECTION( '', ( 1.00000000000000, 0.000000000000000, 0.000000000000000 ) );
#292 = DIRECTION( '', ( 0.000000000000000, 0.000000000000000, -1.00000000000000 ) );
#293 = DIRECTION( '', ( 1.00000000000000, 0.000000000000000, 0.000000000000000 ) );
#294 = CARTESIAN_POINT( '', ( 0.000000000000000, 0.000000000000000, 0.000000000000000 ) );
#295 = DIRECTION( '', ( 1.00000000000000, -0.000000000000000, 0.000000000000000 ) );
#296 = DIRECTION( '', ( 0.000000000000000, 0.000000000000000, -1.00000000000000 ) );
#297 = CARTESIAN_POINT( '', ( 0.000000000000000, 0.000000000000000, 0.000000000000000 ) );
#298 = DIRECTION( '', ( 1.00000000000000, -0.000000000000000, 0.000000000000000 ) );
#299 = DIRECTION( '', ( 0.000000000000000, 0.000000000000000, -1.00000000000000 ) );
#300 = DIRECTION( '', ( -1.00000000000000, -0.000000000000000, -0.000000000000000 ) );
#301 = SURFACE_STYLE_FILL_AREA( #346 );
#302 = ORIENTED_EDGE( '', *, *, #99, .F. );
#303 = ORIENTED_EDGE( '', *, *, #63, .F. );
#304 = ORIENTED_EDGE( '', *, *, #103, .F. );
#305 = ORIENTED_EDGE( '', *, *, #67, .F. );
#306 = CARTESIAN_POINT( '', ( 5000.00000000000, 0.000000000000000, 0.000000000000000 ) );
#307 = DIRECTION( '', ( 1.00000000000000, 0.000000000000000, 0.000000000000000 ) );
#308 = DIRECTION( '', ( 0.000000000000000, 0.000000000000000, -1.00000000000000 ) );
#309 = SURFACE_STYLE_FILL_AREA( #347 );
#310 = ORIENTED_EDGE( '', *, *, #101, .F. );
#311 = ORIENTED_EDGE( '', *, *, #75, .F. );
#312 = ORIENTED_EDGE( '', *, *, #59, .F. );
#313 = ORIENTED_EDGE( '', *, *, #67, .T. );
#314 = CARTESIAN_POINT( '', ( 0.000000000000000, 0.000000000000000, 0.000000000000000 ) );
#315 = DIRECTION( '', ( -1.00000000000000, -0.000000000000000, -0.000000000000000 ) );
#316 = DIRECTION( '', ( 0.000000000000000, 0.000000000000000, -1.00000000000000 ) );
#317 = CARTESIAN_POINT( '', ( 0.000000000000000, 0.000000000000000, 0.000000000000000 ) );
#318 = DIRECTION( '', ( 1.00000000000000, -0.000000000000000, 0.000000000000000 ) );
#319 = DIRECTION( '', ( 0.000000000000000, 0.000000000000000, -1.00000000000000 ) );
#320 = SURFACE_STYLE_FILL_AREA( #348 );
#321 = ORIENTED_EDGE( '', *, *, #101, .T. );
#322 = ORIENTED_EDGE( '', *, *, #103, .T. );
#323 = ORIENTED_EDGE( '', *, *, #59, .T. );
#324 = ORIENTED_EDGE( '', *, *, #89, .F. );
#325 = CARTESIAN_POINT( '', ( 0.000000000000000, 0.000000000000000, 0.000000000000000 ) );
#326 = DIRECTION( '', ( -1.00000000000000, -0.000000000000000, -0.000000000000000 ) );
#327 = DIRECTION( '', ( 0.000000000000000, 0.000000000000000, -1.00000000000000 ) );
#328 = SURFACE_STYLE_FILL_AREA( #349 );
#329 = ORIENTED_EDGE( '', *, *, #71, .T. );
#330 = ORIENTED_EDGE( '', *, *, #99, .T. );
#331 = ORIENTED_EDGE( '', *, *, #79, .T. );
#332 = ORIENTED_EDGE( '', *, *, #57, .T. );
#333 = CARTESIAN_POINT( '', ( 0.000000000000000, 0.000000000000000, 0.000000000000000 ) );
#334 = DIRECTION( '', ( -1.00000000000000, -0.000000000000000, -0.000000000000000 ) );
#335 = DIRECTION( '', ( 0.000000000000000, 0.000000000000000, -1.00000000000000 ) );
#336 = CARTESIAN_POINT( '', ( 5000.00000000000, 0.000000000000000, 0.000000000000000 ) );
#337 = DIRECTION( '', ( -1.00000000000000, 0.000000000000000, 0.000000000000000 ) );
#338 = DIRECTION( '', ( 0.000000000000000, 0.000000000000000, -1.00000000000000 ) );
#339 = DIRECTION( '', ( 1.00000000000000, 0.000000000000000, 0.000000000000000 ) );
#340 = CARTESIAN_POINT( '', ( 5000.00000000000, 0.000000000000000, 0.000000000000000 ) );
#341 = DIRECTION( '', ( 1.00000000000000, 0.000000000000000, 0.000000000000000 ) );
#342 = DIRECTION( '', ( 0.000000000000000, 0.000000000000000, -1.00000000000000 ) );
#343 = FILL_AREA_STYLE( '', ( #350 ) );
#344 = FILL_AREA_STYLE( '', ( #351 ) );
#345 = FILL_AREA_STYLE( '', ( #352 ) );
#346 = FILL_AREA_STYLE( '', ( #353 ) );
#347 = FILL_AREA_STYLE( '', ( #354 ) );
#348 = FILL_AREA_STYLE( '', ( #355 ) );
#349 = FILL_AREA_STYLE( '', ( #356 ) );
#350 = FILL_AREA_STYLE_COLOUR( '', #357 );
#351 = FILL_AREA_STYLE_COLOUR( '', #358 );
#352 = FILL_AREA_STYLE_COLOUR( '', #359 );
#353 = FILL_AREA_STYLE_COLOUR( '', #360 );
#354 = FILL_AREA_STYLE_COLOUR( '', #361 );
#355 = FILL_AREA_STYLE_COLOUR( '', #362 );
#356 = FILL_AREA_STYLE_COLOUR( '', #363 );
#357 = COLOUR_RGB( '', 0.689999997615810, 0.689999997615810, 0.689999997615810 );
#358 = COLOUR_RGB( '', 0.689999997615810, 0.689999997615810, 0.689999997615810 );
#359 = COLOUR_RGB( '', 0.689999997615810, 0.689999997615810, 0.689999997615810 );
#360 = COLOUR_RGB( '', 0.689999997615810, 0.689999997615810, 0.689999997615810 );
#361 = COLOUR_RGB( '', 0.689999997615810, 0.689999997615810, 0.689999997615810 );
#362 = COLOUR_RGB( '', 0.689999997615810, 0.689999997615810, 0.689999997615810 );
#363 = COLOUR_RGB( '', 0.689999997615810, 0.689999997615810, 0.689999997615810 );
ENDSEC;
END-ISO-10303-21;
