ISO-10303-21;
HEADER;
FILE_DESCRIPTION( ( '' ), '1' );
FILE_NAME( '//se01002/users/anro/AGRU_12705100033_PPH_grau_Rohr__5m_1000X30_6__SDR33__ISO_S-16_10.stp', '2018-02-07T07:58:08', ( '' ), ( '' ), ' ', ' ', ' ' );
FILE_SCHEMA( ( 'automotive_design' ) );
ENDSEC;
DATA;
#1 = MECHANICAL_DESIGN_GEOMETRIC_PRESENTATION_REPRESENTATION( ' ', ( #10, #11, #12, #13, #14, #15, #16, #17, #18, #19, #20, #21, #22, #23, #24, #25, #26, #27, #28, #29, #30, #31, #32, #33, #34, #35, #36 ), #6 );
#2 = PRODUCT_DEFINITION_CONTEXT( '', #37, 'design' );
#3 = APPLICATION_PROTOCOL_DEFINITION( 'INTERNATIONAL STANDARD', 'automotive_design', 1994, #37 );
#4 = PRODUCT_CATEGORY_RELATIONSHIP( 'NONE', 'NONE', #38, #39 );
#5 = SHAPE_DEFINITION_REPRESENTATION( #40, #41 );
#6 =  ( GEOMETRIC_REPRESENTATION_CONTEXT( 3 )GLOBAL_UNCERTAINTY_ASSIGNED_CONTEXT( ( #44 ) )GLOBAL_UNIT_ASSIGNED_CONTEXT( ( #46, #47, #48 ) )REPRESENTATION_CONTEXT( 'NONE', 'WORKSPACE' ) );
#10 = STYLED_ITEM( '', ( #50 ), #51 );
#11 = STYLED_ITEM( '', ( #52 ), #53 );
#12 = STYLED_ITEM( '', ( #54 ), #55 );
#13 = STYLED_ITEM( '', ( #56 ), #57 );
#14 = STYLED_ITEM( '', ( #58 ), #59 );
#15 = STYLED_ITEM( '', ( #60 ), #61 );
#16 = STYLED_ITEM( '', ( #62 ), #63 );
#17 = STYLED_ITEM( '', ( #64 ), #65 );
#18 = STYLED_ITEM( '', ( #66 ), #67 );
#19 = STYLED_ITEM( '', ( #68 ), #69 );
#20 = STYLED_ITEM( '', ( #70 ), #71 );
#21 = STYLED_ITEM( '', ( #72 ), #73 );
#22 = STYLED_ITEM( '', ( #74 ), #75 );
#23 = STYLED_ITEM( '', ( #76 ), #77 );
#24 = STYLED_ITEM( '', ( #78 ), #79 );
#25 = STYLED_ITEM( '', ( #80 ), #81 );
#26 = STYLED_ITEM( '', ( #82 ), #83 );
#27 = STYLED_ITEM( '', ( #84 ), #85 );
#28 = STYLED_ITEM( '', ( #86 ), #87 );
#29 = STYLED_ITEM( '', ( #88 ), #89 );
#30 = STYLED_ITEM( '', ( #90 ), #91 );
#31 = STYLED_ITEM( '', ( #92 ), #93 );
#32 = STYLED_ITEM( '', ( #94 ), #95 );
#33 = STYLED_ITEM( '', ( #96 ), #97 );
#34 = STYLED_ITEM( '', ( #98 ), #99 );
#35 = STYLED_ITEM( '', ( #100 ), #101 );
#36 = STYLED_ITEM( '', ( #102 ), #103 );
#37 = APPLICATION_CONTEXT( ' ' );
#38 = PRODUCT_CATEGORY( 'part', 'NONE' );
#39 = PRODUCT_RELATED_PRODUCT_CATEGORY( 'detail', ' ', ( #104 ) );
#40 = PRODUCT_DEFINITION_SHAPE( 'NONE', 'NONE', #105 );
#41 = ADVANCED_BREP_SHAPE_REPRESENTATION( '1', ( #63, #106 ), #6 );
#44 = UNCERTAINTY_MEASURE_WITH_UNIT( LENGTH_MEASURE( 1.00000000000000E-006 ), #46, '', '' );
#46 =  ( CONVERSION_BASED_UNIT( 'MILLIMETRE', #109 )LENGTH_UNIT(  )NAMED_UNIT( #112 ) );
#47 =  ( NAMED_UNIT( #114 )PLANE_ANGLE_UNIT(  )SI_UNIT( $, .RADIAN. ) );
#48 =  ( NAMED_UNIT( #114 )SOLID_ANGLE_UNIT(  )SI_UNIT( $, .STERADIAN. ) );
#50 = PRESENTATION_STYLE_ASSIGNMENT( ( #120 ) );
#51 = EDGE_CURVE( '', #79, #99, #121, .T. );
#52 = PRESENTATION_STYLE_ASSIGNMENT( ( #122 ) );
#53 = EDGE_CURVE( '', #61, #77, #123, .T. );
#54 = PRESENTATION_STYLE_ASSIGNMENT( ( #124 ) );
#55 = EDGE_CURVE( '', #95, #71, #125, .T. );
#56 = PRESENTATION_STYLE_ASSIGNMENT( ( #126 ) );
#57 = EDGE_CURVE( '', #61, #97, #127, .T. );
#58 = PRESENTATION_STYLE_ASSIGNMENT( ( #128 ) );
#59 = EDGE_CURVE( '', #91, #97, #129, .T. );
#60 = PRESENTATION_STYLE_ASSIGNMENT( ( #130 ) );
#61 = VERTEX_POINT( '', #131 );
#62 = PRESENTATION_STYLE_ASSIGNMENT( ( #132 ) );
#63 = MANIFOLD_SOLID_BREP( '1', #133 );
#64 = PRESENTATION_STYLE_ASSIGNMENT( ( #134 ) );
#65 = ADVANCED_FACE( '', ( #135 ), #136, .F. );
#66 = PRESENTATION_STYLE_ASSIGNMENT( ( #137 ) );
#67 = ADVANCED_FACE( '', ( #138, #139 ), #140, .F. );
#68 = PRESENTATION_STYLE_ASSIGNMENT( ( #141 ) );
#69 = EDGE_CURVE( '', #99, #79, #142, .T. );
#70 = PRESENTATION_STYLE_ASSIGNMENT( ( #143 ) );
#71 = VERTEX_POINT( '', #144 );
#72 = PRESENTATION_STYLE_ASSIGNMENT( ( #145 ) );
#73 = EDGE_CURVE( '', #91, #77, #146, .T. );
#74 = PRESENTATION_STYLE_ASSIGNMENT( ( #147 ) );
#75 = EDGE_CURVE( '', #95, #99, #148, .T. );
#76 = PRESENTATION_STYLE_ASSIGNMENT( ( #149 ) );
#77 = VERTEX_POINT( '', #150 );
#78 = PRESENTATION_STYLE_ASSIGNMENT( ( #151 ) );
#79 = VERTEX_POINT( '', #152 );
#80 = PRESENTATION_STYLE_ASSIGNMENT( ( #153 ) );
#81 = ADVANCED_FACE( '', ( #154 ), #155, .F. );
#82 = PRESENTATION_STYLE_ASSIGNMENT( ( #156 ) );
#83 = EDGE_CURVE( '', #71, #95, #157, .T. );
#84 = PRESENTATION_STYLE_ASSIGNMENT( ( #158 ) );
#85 = EDGE_CURVE( '', #77, #61, #159, .T. );
#86 = PRESENTATION_STYLE_ASSIGNMENT( ( #160 ) );
#87 = ADVANCED_FACE( '', ( #161 ), #162, .T. );
#88 = PRESENTATION_STYLE_ASSIGNMENT( ( #163 ) );
#89 = EDGE_CURVE( '', #79, #71, #164, .T. );
#90 = PRESENTATION_STYLE_ASSIGNMENT( ( #165 ) );
#91 = VERTEX_POINT( '', #166 );
#92 = PRESENTATION_STYLE_ASSIGNMENT( ( #167 ) );
#93 = ADVANCED_FACE( '', ( #168 ), #169, .T. );
#94 = PRESENTATION_STYLE_ASSIGNMENT( ( #170 ) );
#95 = VERTEX_POINT( '', #171 );
#96 = PRESENTATION_STYLE_ASSIGNMENT( ( #172 ) );
#97 = VERTEX_POINT( '', #173 );
#98 = PRESENTATION_STYLE_ASSIGNMENT( ( #174 ) );
#99 = VERTEX_POINT( '', #175 );
#100 = PRESENTATION_STYLE_ASSIGNMENT( ( #176 ) );
#101 = ADVANCED_FACE( '', ( #177, #178 ), #179, .T. );
#102 = PRESENTATION_STYLE_ASSIGNMENT( ( #180 ) );
#103 = EDGE_CURVE( '', #97, #91, #181, .T. );
#104 = PRODUCT( '1', '1', 'PART-1-DESC', ( #182 ) );
#105 = PRODUCT_DEFINITION( 'NONE', 'NONE', #183, #2 );
#106 = AXIS2_PLACEMENT_3D( '', #184, #185, #186 );
#109 = LENGTH_MEASURE_WITH_UNIT( LENGTH_MEASURE( 1.00000000000000 ), #187 );
#112 = DIMENSIONAL_EXPONENTS( 1.00000000000000, 0.000000000000000, 0.000000000000000, 0.000000000000000, 0.000000000000000, 0.000000000000000, 0.000000000000000 );
#114 = DIMENSIONAL_EXPONENTS( 0.000000000000000, 0.000000000000000, 0.000000000000000, 0.000000000000000, 0.000000000000000, 0.000000000000000, 0.000000000000000 );
#120 = CURVE_STYLE( '', #188, POSITIVE_LENGTH_MEASURE( 1.00000000000000E-006 ), #189 );
#121 = CIRCLE( '', #190, 500.000000000000 );
#122 = CURVE_STYLE( '', #191, POSITIVE_LENGTH_MEASURE( 1.00000000000000E-006 ), #192 );
#123 = CIRCLE( '', #193, 469.400000000000 );
#124 = CURVE_STYLE( '', #194, POSITIVE_LENGTH_MEASURE( 1.00000000000000E-006 ), #195 );
#125 = CIRCLE( '', #196, 500.000000000000 );
#126 = CURVE_STYLE( '', #197, POSITIVE_LENGTH_MEASURE( 1.00000000000000E-006 ), #198 );
#127 = LINE( '', #199, #200 );
#128 = CURVE_STYLE( '', #201, POSITIVE_LENGTH_MEASURE( 1.00000000000000E-006 ), #202 );
#129 = CIRCLE( '', #203, 469.400000000000 );
#130 = POINT_STYLE( ' ', #204, POSITIVE_LENGTH_MEASURE( 1.00000000000000E-006 ), #205 );
#131 = CARTESIAN_POINT( '', ( 0.000000000000000, 0.000000000000000, -469.400000000000 ) );
#132 = SURFACE_STYLE_USAGE( .BOTH., #206 );
#133 = CLOSED_SHELL( '', ( #87, #65, #81, #93, #101, #67 ) );
#134 = SURFACE_STYLE_USAGE( .BOTH., #207 );
#135 = FACE_OUTER_BOUND( '', #208, .T. );
#136 = CYLINDRICAL_SURFACE( '', #209, 469.400000000000 );
#137 = SURFACE_STYLE_USAGE( .BOTH., #210 );
#138 = FACE_OUTER_BOUND( '', #211, .T. );
#139 = FACE_BOUND( '', #212, .T. );
#140 = PLANE( '', #213 );
#141 = CURVE_STYLE( '', #214, POSITIVE_LENGTH_MEASURE( 1.00000000000000E-006 ), #215 );
#142 = CIRCLE( '', #216, 500.000000000000 );
#143 = POINT_STYLE( ' ', #217, POSITIVE_LENGTH_MEASURE( 1.00000000000000E-006 ), #218 );
#144 = CARTESIAN_POINT( '', ( 0.000000000000000, 6.12303176911189E-014, 500.000000000000 ) );
#145 = CURVE_STYLE( '', #219, POSITIVE_LENGTH_MEASURE( 1.00000000000000E-006 ), #220 );
#146 = LINE( '', #221, #222 );
#147 = CURVE_STYLE( '', #223, POSITIVE_LENGTH_MEASURE( 1.00000000000000E-006 ), #224 );
#148 = LINE( '', #225, #226 );
#149 = POINT_STYLE( ' ', #227, POSITIVE_LENGTH_MEASURE( 1.00000000000000E-006 ), #228 );
#150 = CARTESIAN_POINT( '', ( 0.000000000000000, 5.74830222484224E-014, 469.400000000000 ) );
#151 = POINT_STYLE( ' ', #229, POSITIVE_LENGTH_MEASURE( 1.00000000000000E-006 ), #230 );
#152 = CARTESIAN_POINT( '', ( 5000.00000000000, 6.12303176911189E-014, 500.000000000000 ) );
#153 = SURFACE_STYLE_USAGE( .BOTH., #231 );
#154 = FACE_OUTER_BOUND( '', #232, .T. );
#155 = CYLINDRICAL_SURFACE( '', #233, 469.400000000000 );
#156 = CURVE_STYLE( '', #234, POSITIVE_LENGTH_MEASURE( 1.00000000000000E-006 ), #235 );
#157 = CIRCLE( '', #236, 500.000000000000 );
#158 = CURVE_STYLE( '', #237, POSITIVE_LENGTH_MEASURE( 1.00000000000000E-006 ), #238 );
#159 = CIRCLE( '', #239, 469.400000000000 );
#160 = SURFACE_STYLE_USAGE( .BOTH., #240 );
#161 = FACE_OUTER_BOUND( '', #241, .T. );
#162 = CYLINDRICAL_SURFACE( '', #242, 500.000000000000 );
#163 = CURVE_STYLE( '', #243, POSITIVE_LENGTH_MEASURE( 1.00000000000000E-006 ), #244 );
#164 = LINE( '', #245, #246 );
#165 = POINT_STYLE( ' ', #247, POSITIVE_LENGTH_MEASURE( 1.00000000000000E-006 ), #248 );
#166 = CARTESIAN_POINT( '', ( 5000.00000000000, 5.74830222484224E-014, 469.400000000000 ) );
#167 = SURFACE_STYLE_USAGE( .BOTH., #249 );
#168 = FACE_OUTER_BOUND( '', #250, .T. );
#169 = CYLINDRICAL_SURFACE( '', #251, 500.000000000000 );
#170 = POINT_STYLE( ' ', #252, POSITIVE_LENGTH_MEASURE( 1.00000000000000E-006 ), #253 );
#171 = CARTESIAN_POINT( '', ( 0.000000000000000, 0.000000000000000, -500.000000000000 ) );
#172 = POINT_STYLE( ' ', #254, POSITIVE_LENGTH_MEASURE( 1.00000000000000E-006 ), #255 );
#173 = CARTESIAN_POINT( '', ( 5000.00000000000, 0.000000000000000, -469.400000000000 ) );
#174 = POINT_STYLE( ' ', #256, POSITIVE_LENGTH_MEASURE( 1.00000000000000E-006 ), #257 );
#175 = CARTESIAN_POINT( '', ( 5000.00000000000, 0.000000000000000, -500.000000000000 ) );
#176 = SURFACE_STYLE_USAGE( .BOTH., #258 );
#177 = FACE_OUTER_BOUND( '', #259, .T. );
#178 = FACE_BOUND( '', #260, .T. );
#179 = PLANE( '', #261 );
#180 = CURVE_STYLE( '', #262, POSITIVE_LENGTH_MEASURE( 1.00000000000000E-006 ), #263 );
#181 = CIRCLE( '', #264, 469.400000000000 );
#182 = PRODUCT_CONTEXT( '', #37, 'mechanical' );
#183 = PRODUCT_DEFINITION_FORMATION_WITH_SPECIFIED_SOURCE( ' ', 'NONE', #104, .NOT_KNOWN. );
#184 = CARTESIAN_POINT( '', ( 0.000000000000000, 0.000000000000000, 0.000000000000000 ) );
#185 = DIRECTION( '', ( 0.000000000000000, 0.000000000000000, 1.00000000000000 ) );
#186 = DIRECTION( '', ( 1.00000000000000, 0.000000000000000, 0.000000000000000 ) );
#187 =  ( NAMED_UNIT( #112 )LENGTH_UNIT(  )SI_UNIT( .MILLI., .METRE. ) );
#188 = DRAUGHTING_PRE_DEFINED_CURVE_FONT( 'continuous' );
#189 = COLOUR_RGB( '', 0.689999997615810, 0.689999997615810, 0.689999997615810 );
#190 = AXIS2_PLACEMENT_3D( '', #266, #267, #268 );
#191 = DRAUGHTING_PRE_DEFINED_CURVE_FONT( 'continuous' );
#192 = COLOUR_RGB( '', 0.689999997615810, 0.689999997615810, 0.689999997615810 );
#193 = AXIS2_PLACEMENT_3D( '', #269, #270, #271 );
#194 = DRAUGHTING_PRE_DEFINED_CURVE_FONT( 'continuous' );
#195 = COLOUR_RGB( '', 0.689999997615810, 0.689999997615810, 0.689999997615810 );
#196 = AXIS2_PLACEMENT_3D( '', #272, #273, #274 );
#197 = DRAUGHTING_PRE_DEFINED_CURVE_FONT( 'continuous' );
#198 = COLOUR_RGB( '', 0.689999997615810, 0.689999997615810, 0.689999997615810 );
#199 = CARTESIAN_POINT( '', ( 0.000000000000000, -5.74830222484224E-014, -469.400000000000 ) );
#200 = VECTOR( '', #275, 1.00000000000000 );
#201 = DRAUGHTING_PRE_DEFINED_CURVE_FONT( 'continuous' );
#202 = COLOUR_RGB( '', 0.689999997615810, 0.689999997615810, 0.689999997615810 );
#203 = AXIS2_PLACEMENT_3D( '', #276, #277, #278 );
#204 = PRE_DEFINED_MARKER( '' );
#205 = COLOUR_RGB( '', 0.689999997615810, 0.689999997615810, 0.689999997615810 );
#206 = SURFACE_SIDE_STYLE( '', ( #279 ) );
#207 = SURFACE_SIDE_STYLE( '', ( #280 ) );
#208 = EDGE_LOOP( '', ( #281, #282, #283, #284 ) );
#209 = AXIS2_PLACEMENT_3D( '', #285, #286, #287 );
#210 = SURFACE_SIDE_STYLE( '', ( #288 ) );
#211 = EDGE_LOOP( '', ( #289, #290 ) );
#212 = EDGE_LOOP( '', ( #291, #292 ) );
#213 = AXIS2_PLACEMENT_3D( '', #293, #294, #295 );
#214 = DRAUGHTING_PRE_DEFINED_CURVE_FONT( 'continuous' );
#215 = COLOUR_RGB( '', 0.689999997615810, 0.689999997615810, 0.689999997615810 );
#216 = AXIS2_PLACEMENT_3D( '', #296, #297, #298 );
#217 = PRE_DEFINED_MARKER( '' );
#218 = COLOUR_RGB( '', 0.689999997615810, 0.689999997615810, 0.689999997615810 );
#219 = DRAUGHTING_PRE_DEFINED_CURVE_FONT( 'continuous' );
#220 = COLOUR_RGB( '', 0.689999997615810, 0.689999997615810, 0.689999997615810 );
#221 = CARTESIAN_POINT( '', ( 0.000000000000000, 5.74830222484224E-014, 469.400000000000 ) );
#222 = VECTOR( '', #299, 1.00000000000000 );
#223 = DRAUGHTING_PRE_DEFINED_CURVE_FONT( 'continuous' );
#224 = COLOUR_RGB( '', 0.689999997615810, 0.689999997615810, 0.689999997615810 );
#225 = CARTESIAN_POINT( '', ( 0.000000000000000, -6.12303176911189E-014, -500.000000000000 ) );
#226 = VECTOR( '', #300, 1.00000000000000 );
#227 = PRE_DEFINED_MARKER( '' );
#228 = COLOUR_RGB( '', 0.689999997615810, 0.689999997615810, 0.689999997615810 );
#229 = PRE_DEFINED_MARKER( '' );
#230 = COLOUR_RGB( '', 0.689999997615810, 0.689999997615810, 0.689999997615810 );
#231 = SURFACE_SIDE_STYLE( '', ( #301 ) );
#232 = EDGE_LOOP( '', ( #302, #303, #304, #305 ) );
#233 = AXIS2_PLACEMENT_3D( '', #306, #307, #308 );
#234 = DRAUGHTING_PRE_DEFINED_CURVE_FONT( 'continuous' );
#235 = COLOUR_RGB( '', 0.689999997615810, 0.689999997615810, 0.689999997615810 );
#236 = AXIS2_PLACEMENT_3D( '', #309, #310, #311 );
#237 = DRAUGHTING_PRE_DEFINED_CURVE_FONT( 'continuous' );
#238 = COLOUR_RGB( '', 0.689999997615810, 0.689999997615810, 0.689999997615810 );
#239 = AXIS2_PLACEMENT_3D( '', #312, #313, #314 );
#240 = SURFACE_SIDE_STYLE( '', ( #315 ) );
#241 = EDGE_LOOP( '', ( #316, #317, #318, #319 ) );
#242 = AXIS2_PLACEMENT_3D( '', #320, #321, #322 );
#243 = DRAUGHTING_PRE_DEFINED_CURVE_FONT( 'continuous' );
#244 = COLOUR_RGB( '', 0.689999997615810, 0.689999997615810, 0.689999997615810 );
#245 = CARTESIAN_POINT( '', ( 0.000000000000000, 6.12303176911189E-014, 500.000000000000 ) );
#246 = VECTOR( '', #323, 1.00000000000000 );
#247 = PRE_DEFINED_MARKER( '' );
#248 = COLOUR_RGB( '', 0.689999997615810, 0.689999997615810, 0.689999997615810 );
#249 = SURFACE_SIDE_STYLE( '', ( #324 ) );
#250 = EDGE_LOOP( '', ( #325, #326, #327, #328 ) );
#251 = AXIS2_PLACEMENT_3D( '', #329, #330, #331 );
#252 = PRE_DEFINED_MARKER( '' );
#253 = COLOUR_RGB( '', 0.689999997615810, 0.689999997615810, 0.689999997615810 );
#254 = PRE_DEFINED_MARKER( '' );
#255 = COLOUR_RGB( '', 0.689999997615810, 0.689999997615810, 0.689999997615810 );
#256 = PRE_DEFINED_MARKER( '' );
#257 = COLOUR_RGB( '', 0.689999997615810, 0.689999997615810, 0.689999997615810 );
#258 = SURFACE_SIDE_STYLE( '', ( #332 ) );
#259 = EDGE_LOOP( '', ( #333, #334 ) );
#260 = EDGE_LOOP( '', ( #335, #336 ) );
#261 = AXIS2_PLACEMENT_3D( '', #337, #338, #339 );
#262 = DRAUGHTING_PRE_DEFINED_CURVE_FONT( 'continuous' );
#263 = COLOUR_RGB( '', 0.689999997615810, 0.689999997615810, 0.689999997615810 );
#264 = AXIS2_PLACEMENT_3D( '', #340, #341, #342 );
#266 = CARTESIAN_POINT( '', ( 5000.00000000000, 0.000000000000000, 0.000000000000000 ) );
#267 = DIRECTION( '', ( -1.00000000000000, 0.000000000000000, 0.000000000000000 ) );
#268 = DIRECTION( '', ( 0.000000000000000, 0.000000000000000, -1.00000000000000 ) );
#269 = CARTESIAN_POINT( '', ( 0.000000000000000, 0.000000000000000, 0.000000000000000 ) );
#270 = DIRECTION( '', ( 1.00000000000000, -0.000000000000000, 0.000000000000000 ) );
#271 = DIRECTION( '', ( 0.000000000000000, 0.000000000000000, -1.00000000000000 ) );
#272 = CARTESIAN_POINT( '', ( 0.000000000000000, 0.000000000000000, 0.000000000000000 ) );
#273 = DIRECTION( '', ( 1.00000000000000, -0.000000000000000, 0.000000000000000 ) );
#274 = DIRECTION( '', ( 0.000000000000000, 0.000000000000000, -1.00000000000000 ) );
#275 = DIRECTION( '', ( 1.00000000000000, 0.000000000000000, 0.000000000000000 ) );
#276 = CARTESIAN_POINT( '', ( 5000.00000000000, 0.000000000000000, 0.000000000000000 ) );
#277 = DIRECTION( '', ( 1.00000000000000, 0.000000000000000, 0.000000000000000 ) );
#278 = DIRECTION( '', ( 0.000000000000000, 0.000000000000000, -1.00000000000000 ) );
#279 = SURFACE_STYLE_FILL_AREA( #343 );
#280 = SURFACE_STYLE_FILL_AREA( #344 );
#281 = ORIENTED_EDGE( '', *, *, #57, .F. );
#282 = ORIENTED_EDGE( '', *, *, #85, .F. );
#283 = ORIENTED_EDGE( '', *, *, #73, .F. );
#284 = ORIENTED_EDGE( '', *, *, #59, .T. );
#285 = CARTESIAN_POINT( '', ( 0.000000000000000, 0.000000000000000, 0.000000000000000 ) );
#286 = DIRECTION( '', ( -1.00000000000000, -0.000000000000000, -0.000000000000000 ) );
#287 = DIRECTION( '', ( 0.000000000000000, 0.000000000000000, -1.00000000000000 ) );
#288 = SURFACE_STYLE_FILL_AREA( #345 );
#289 = ORIENTED_EDGE( '', *, *, #55, .F. );
#290 = ORIENTED_EDGE( '', *, *, #83, .F. );
#291 = ORIENTED_EDGE( '', *, *, #53, .T. );
#292 = ORIENTED_EDGE( '', *, *, #85, .T. );
#293 = CARTESIAN_POINT( '', ( 0.000000000000000, 0.000000000000000, 0.000000000000000 ) );
#294 = DIRECTION( '', ( 1.00000000000000, 0.000000000000000, 0.000000000000000 ) );
#295 = DIRECTION( '', ( 0.000000000000000, 0.000000000000000, -1.00000000000000 ) );
#296 = CARTESIAN_POINT( '', ( 5000.00000000000, 0.000000000000000, 0.000000000000000 ) );
#297 = DIRECTION( '', ( -1.00000000000000, 0.000000000000000, 0.000000000000000 ) );
#298 = DIRECTION( '', ( 0.000000000000000, 0.000000000000000, -1.00000000000000 ) );
#299 = DIRECTION( '', ( -1.00000000000000, 0.000000000000000, 0.000000000000000 ) );
#300 = DIRECTION( '', ( 1.00000000000000, 0.000000000000000, 0.000000000000000 ) );
#301 = SURFACE_STYLE_FILL_AREA( #346 );
#302 = ORIENTED_EDGE( '', *, *, #57, .T. );
#303 = ORIENTED_EDGE( '', *, *, #103, .T. );
#304 = ORIENTED_EDGE( '', *, *, #73, .T. );
#305 = ORIENTED_EDGE( '', *, *, #53, .F. );
#306 = CARTESIAN_POINT( '', ( 0.000000000000000, 0.000000000000000, 0.000000000000000 ) );
#307 = DIRECTION( '', ( -1.00000000000000, -0.000000000000000, -0.000000000000000 ) );
#308 = DIRECTION( '', ( 0.000000000000000, 0.000000000000000, -1.00000000000000 ) );
#309 = CARTESIAN_POINT( '', ( 0.000000000000000, 0.000000000000000, 0.000000000000000 ) );
#310 = DIRECTION( '', ( 1.00000000000000, -0.000000000000000, 0.000000000000000 ) );
#311 = DIRECTION( '', ( 0.000000000000000, 0.000000000000000, -1.00000000000000 ) );
#312 = CARTESIAN_POINT( '', ( 0.000000000000000, 0.000000000000000, 0.000000000000000 ) );
#313 = DIRECTION( '', ( 1.00000000000000, -0.000000000000000, 0.000000000000000 ) );
#314 = DIRECTION( '', ( 0.000000000000000, 0.000000000000000, -1.00000000000000 ) );
#315 = SURFACE_STYLE_FILL_AREA( #347 );
#316 = ORIENTED_EDGE( '', *, *, #75, .F. );
#317 = ORIENTED_EDGE( '', *, *, #55, .T. );
#318 = ORIENTED_EDGE( '', *, *, #89, .F. );
#319 = ORIENTED_EDGE( '', *, *, #51, .T. );
#320 = CARTESIAN_POINT( '', ( 0.000000000000000, 0.000000000000000, 0.000000000000000 ) );
#321 = DIRECTION( '', ( -1.00000000000000, -0.000000000000000, -0.000000000000000 ) );
#322 = DIRECTION( '', ( 0.000000000000000, 0.000000000000000, -1.00000000000000 ) );
#323 = DIRECTION( '', ( -1.00000000000000, -0.000000000000000, -0.000000000000000 ) );
#324 = SURFACE_STYLE_FILL_AREA( #348 );
#325 = ORIENTED_EDGE( '', *, *, #75, .T. );
#326 = ORIENTED_EDGE( '', *, *, #69, .T. );
#327 = ORIENTED_EDGE( '', *, *, #89, .T. );
#328 = ORIENTED_EDGE( '', *, *, #83, .T. );
#329 = CARTESIAN_POINT( '', ( 0.000000000000000, 0.000000000000000, 0.000000000000000 ) );
#330 = DIRECTION( '', ( -1.00000000000000, -0.000000000000000, -0.000000000000000 ) );
#331 = DIRECTION( '', ( 0.000000000000000, 0.000000000000000, -1.00000000000000 ) );
#332 = SURFACE_STYLE_FILL_AREA( #349 );
#333 = ORIENTED_EDGE( '', *, *, #69, .F. );
#334 = ORIENTED_EDGE( '', *, *, #51, .F. );
#335 = ORIENTED_EDGE( '', *, *, #103, .F. );
#336 = ORIENTED_EDGE( '', *, *, #59, .F. );
#337 = CARTESIAN_POINT( '', ( 5000.00000000000, 0.000000000000000, 0.000000000000000 ) );
#338 = DIRECTION( '', ( 1.00000000000000, 0.000000000000000, 0.000000000000000 ) );
#339 = DIRECTION( '', ( 0.000000000000000, 0.000000000000000, -1.00000000000000 ) );
#340 = CARTESIAN_POINT( '', ( 5000.00000000000, 0.000000000000000, 0.000000000000000 ) );
#341 = DIRECTION( '', ( 1.00000000000000, 0.000000000000000, 0.000000000000000 ) );
#342 = DIRECTION( '', ( 0.000000000000000, 0.000000000000000, -1.00000000000000 ) );
#343 = FILL_AREA_STYLE( '', ( #350 ) );
#344 = FILL_AREA_STYLE( '', ( #351 ) );
#345 = FILL_AREA_STYLE( '', ( #352 ) );
#346 = FILL_AREA_STYLE( '', ( #353 ) );
#347 = FILL_AREA_STYLE( '', ( #354 ) );
#348 = FILL_AREA_STYLE( '', ( #355 ) );
#349 = FILL_AREA_STYLE( '', ( #356 ) );
#350 = FILL_AREA_STYLE_COLOUR( '', #357 );
#351 = FILL_AREA_STYLE_COLOUR( '', #358 );
#352 = FILL_AREA_STYLE_COLOUR( '', #359 );
#353 = FILL_AREA_STYLE_COLOUR( '', #360 );
#354 = FILL_AREA_STYLE_COLOUR( '', #361 );
#355 = FILL_AREA_STYLE_COLOUR( '', #362 );
#356 = FILL_AREA_STYLE_COLOUR( '', #363 );
#357 = COLOUR_RGB( '', 0.689999997615810, 0.689999997615810, 0.689999997615810 );
#358 = COLOUR_RGB( '', 0.689999997615810, 0.689999997615810, 0.689999997615810 );
#359 = COLOUR_RGB( '', 0.689999997615810, 0.689999997615810, 0.689999997615810 );
#360 = COLOUR_RGB( '', 0.689999997615810, 0.689999997615810, 0.689999997615810 );
#361 = COLOUR_RGB( '', 0.689999997615810, 0.689999997615810, 0.689999997615810 );
#362 = COLOUR_RGB( '', 0.689999997615810, 0.689999997615810, 0.689999997615810 );
#363 = COLOUR_RGB( '', 0.689999997615810, 0.689999997615810, 0.689999997615810 );
ENDSEC;
END-ISO-10303-21;
