ISO-10303-21;
HEADER;
FILE_DESCRIPTION(('STEP AP214'),'1');
FILE_NAME('rbm17075050.stp','2018-02-08T14:03:42',('TraceParts'),('TraceParts S.A.'),'Spatial InterOp 3D',' ',' ');
FILE_SCHEMA(('automotive_design'));
ENDSEC;
DATA;
#1=MECHANICAL_DESIGN_GEOMETRIC_PRESENTATION_REPRESENTATION(' ',(#10,#11,#12,#13,#14,#15,#16,#17,#18,#19,#20,#21,#22,#23,#24),#6);
#2=PRODUCT_DEFINITION_CONTEXT('',#25,'design');
#3=APPLICATION_PROTOCOL_DEFINITION('INTERNATIONAL STANDARD','automotive_design',1994,#25);
#4=PRODUCT_CATEGORY_RELATIONSHIP('NONE','NONE',#26,#27);
#5=SHAPE_DEFINITION_REPRESENTATION(#28,#29);
#6= (GEOMETRIC_REPRESENTATION_CONTEXT(3)GLOBAL_UNCERTAINTY_ASSIGNED_CONTEXT((#32))GLOBAL_UNIT_ASSIGNED_CONTEXT((#34,#35,#36))REPRESENTATION_CONTEXT('NONE','WORKSPACE'));
#10=STYLED_ITEM('',(#38),#39);
#11=STYLED_ITEM('',(#40),#41);
#12=STYLED_ITEM('',(#42),#43);
#13=STYLED_ITEM('',(#44),#45);
#14=STYLED_ITEM('',(#46),#47);
#15=STYLED_ITEM('',(#48),#49);
#16=STYLED_ITEM('',(#50),#51);
#17=STYLED_ITEM('',(#52),#53);
#18=STYLED_ITEM('',(#54),#55);
#19=STYLED_ITEM('',(#56),#57);
#20=STYLED_ITEM('',(#58),#59);
#21=STYLED_ITEM('',(#60),#61);
#22=STYLED_ITEM('',(#62),#63);
#23=STYLED_ITEM('',(#64),#65);
#24=STYLED_ITEM('',(#66),#67);
#25=APPLICATION_CONTEXT(' ');
#26=PRODUCT_CATEGORY('part','NONE');
#27=PRODUCT_RELATED_PRODUCT_CATEGORY('detail',' ',(#68));
#28=PRODUCT_DEFINITION_SHAPE('NONE','NONE',#69);
#29=ADVANCED_BREP_SHAPE_REPRESENTATION('rbm17075050',(#67,#70),#6);
#32=UNCERTAINTY_MEASURE_WITH_UNIT(LENGTH_MEASURE(1.0E-006),#34,'','');
#34= (CONVERSION_BASED_UNIT('MILLIMETRE',#73)LENGTH_UNIT()NAMED_UNIT(#76));
#35= (NAMED_UNIT(#78)PLANE_ANGLE_UNIT()SI_UNIT($,.RADIAN.));
#36= (NAMED_UNIT(#78)SOLID_ANGLE_UNIT()SI_UNIT($,.STERADIAN.));
#38=PRESENTATION_STYLE_ASSIGNMENT((#84));
#39=ADVANCED_FACE('',(#85),#86,.F.);
#40=PRESENTATION_STYLE_ASSIGNMENT((#87));
#41=ADVANCED_FACE('',(#88),#89,.F.);
#42=PRESENTATION_STYLE_ASSIGNMENT((#90));
#43=ADVANCED_FACE('',(#91),#92,.F.);
#44=PRESENTATION_STYLE_ASSIGNMENT((#93));
#45=ADVANCED_FACE('',(#94),#95,.T.);
#46=PRESENTATION_STYLE_ASSIGNMENT((#96));
#47=ADVANCED_FACE('',(#97),#98,.T.);
#48=PRESENTATION_STYLE_ASSIGNMENT((#99));
#49=ADVANCED_FACE('',(#100),#101,.T.);
#50=PRESENTATION_STYLE_ASSIGNMENT((#102));
#51=ADVANCED_FACE('',(#103),#104,.T.);
#52=PRESENTATION_STYLE_ASSIGNMENT((#105));
#53=ADVANCED_FACE('',(#106),#107,.T.);
#54=PRESENTATION_STYLE_ASSIGNMENT((#108));
#55=ADVANCED_FACE('',(#109),#110,.T.);
#56=PRESENTATION_STYLE_ASSIGNMENT((#111));
#57=ADVANCED_FACE('',(#112,#113),#114,.T.);
#58=PRESENTATION_STYLE_ASSIGNMENT((#115));
#59=ADVANCED_FACE('',(#116),#117,.F.);
#60=PRESENTATION_STYLE_ASSIGNMENT((#118));
#61=ADVANCED_FACE('',(#119),#120,.F.);
#62=PRESENTATION_STYLE_ASSIGNMENT((#121));
#63=ADVANCED_FACE('',(#122),#123,.F.);
#64=PRESENTATION_STYLE_ASSIGNMENT((#124));
#65=ADVANCED_FACE('',(#125,#126),#127,.T.);
#66=PRESENTATION_STYLE_ASSIGNMENT((#128));
#67=MANIFOLD_SOLID_BREP('rbm17075050',#129);
#68=PRODUCT('rbm17075050','rbm17075050','PART-rbm17075050-DESC',(#130));
#69=PRODUCT_DEFINITION('NONE','NONE',#131,#2);
#70=AXIS2_PLACEMENT_3D('',#132,#133,#134);
#73=LENGTH_MEASURE_WITH_UNIT(LENGTH_MEASURE(1.0),#135);
#76=DIMENSIONAL_EXPONENTS(1.0,0.0,0.0,0.0,0.0,0.0,0.0);
#78=DIMENSIONAL_EXPONENTS(0.0,0.0,0.0,0.0,0.0,0.0,0.0);
#84=SURFACE_STYLE_USAGE(.BOTH.,#136);
#85=FACE_OUTER_BOUND('',#137,.T.);
#86=CYLINDRICAL_SURFACE('',#138,33.2);
#87=SURFACE_STYLE_USAGE(.BOTH.,#139);
#88=FACE_OUTER_BOUND('',#140,.T.);
#89=CONICAL_SURFACE('',#141,27.65,0.302884868375955);
#90=SURFACE_STYLE_USAGE(.BOTH.,#142);
#91=FACE_OUTER_BOUND('',#143,.T.);
#92=CYLINDRICAL_SURFACE('',#144,22.1);
#93=SURFACE_STYLE_USAGE(.BOTH.,#145);
#94=FACE_OUTER_BOUND('',#146,.T.);
#95=CYLINDRICAL_SURFACE('',#147,25.0);
#96=SURFACE_STYLE_USAGE(.BOTH.,#148);
#97=FACE_OUTER_BOUND('',#149,.T.);
#98=CONICAL_SURFACE('',#150,31.25,0.302884868375955);
#99=SURFACE_STYLE_USAGE(.BOTH.,#151);
#100=FACE_OUTER_BOUND('',#152,.T.);
#101=CYLINDRICAL_SURFACE('',#153,37.5);
#102=SURFACE_STYLE_USAGE(.BOTH.,#154);
#103=FACE_OUTER_BOUND('',#155,.T.);
#104=CYLINDRICAL_SURFACE('',#156,37.5);
#105=SURFACE_STYLE_USAGE(.BOTH.,#157);
#106=FACE_OUTER_BOUND('',#158,.T.);
#107=CONICAL_SURFACE('',#159,31.25,0.302884868375955);
#108=SURFACE_STYLE_USAGE(.BOTH.,#160);
#109=FACE_OUTER_BOUND('',#161,.T.);
#110=CYLINDRICAL_SURFACE('',#162,25.0);
#111=SURFACE_STYLE_USAGE(.BOTH.,#163);
#112=FACE_OUTER_BOUND('',#164,.T.);
#113=FACE_BOUND('',#165,.T.);
#114=PLANE('',#166);
#115=SURFACE_STYLE_USAGE(.BOTH.,#167);
#116=FACE_OUTER_BOUND('',#168,.T.);
#117=CYLINDRICAL_SURFACE('',#169,22.1);
#118=SURFACE_STYLE_USAGE(.BOTH.,#170);
#119=FACE_OUTER_BOUND('',#171,.T.);
#120=CONICAL_SURFACE('',#172,27.65,0.302884868375955);
#121=SURFACE_STYLE_USAGE(.BOTH.,#173);
#122=FACE_OUTER_BOUND('',#174,.T.);
#123=CYLINDRICAL_SURFACE('',#175,33.2);
#124=SURFACE_STYLE_USAGE(.BOTH.,#176);
#125=FACE_BOUND('',#177,.T.);
#126=FACE_OUTER_BOUND('',#178,.T.);
#127=PLANE('',#179);
#128=SURFACE_STYLE_USAGE(.BOTH.,#180);
#129=CLOSED_SHELL('',(#39,#41,#43,#45,#47,#49,#51,#53,#55,#57,#59,#61,#63,#65));
#130=PRODUCT_CONTEXT('',#25,'mechanical');
#131=PRODUCT_DEFINITION_FORMATION_WITH_SPECIFIED_SOURCE(' ','NONE',#68,.NOT_KNOWN.);
#132=CARTESIAN_POINT('',(0.0,0.0,0.0));
#133=DIRECTION('',(0.0,0.0,1.0));
#134=DIRECTION('',(1.0,0.0,0.0));
#135= (NAMED_UNIT(#76)LENGTH_UNIT()SI_UNIT(.MILLI.,.METRE.));
#136=SURFACE_SIDE_STYLE('',(#182));
#137=EDGE_LOOP('',(#183,#184,#185,#186));
#138=AXIS2_PLACEMENT_3D('',#187,#188,#189);
#139=SURFACE_SIDE_STYLE('',(#190));
#140=EDGE_LOOP('',(#191,#192,#193,#194));
#141=AXIS2_PLACEMENT_3D('',#195,#196,#197);
#142=SURFACE_SIDE_STYLE('',(#198));
#143=EDGE_LOOP('',(#199,#200,#201,#202));
#144=AXIS2_PLACEMENT_3D('',#203,#204,#205);
#145=SURFACE_SIDE_STYLE('',(#206));
#146=EDGE_LOOP('',(#207,#208,#209,#210));
#147=AXIS2_PLACEMENT_3D('',#211,#212,#213);
#148=SURFACE_SIDE_STYLE('',(#214));
#149=EDGE_LOOP('',(#215,#216,#217,#218));
#150=AXIS2_PLACEMENT_3D('',#219,#220,#221);
#151=SURFACE_SIDE_STYLE('',(#222));
#152=EDGE_LOOP('',(#223,#224,#225,#226));
#153=AXIS2_PLACEMENT_3D('',#227,#228,#229);
#154=SURFACE_SIDE_STYLE('',(#230));
#155=EDGE_LOOP('',(#231,#232,#233,#234));
#156=AXIS2_PLACEMENT_3D('',#235,#236,#237);
#157=SURFACE_SIDE_STYLE('',(#238));
#158=EDGE_LOOP('',(#239,#240,#241,#242));
#159=AXIS2_PLACEMENT_3D('',#243,#244,#245);
#160=SURFACE_SIDE_STYLE('',(#246));
#161=EDGE_LOOP('',(#247,#248,#249,#250));
#162=AXIS2_PLACEMENT_3D('',#251,#252,#253);
#163=SURFACE_SIDE_STYLE('',(#254));
#164=EDGE_LOOP('',(#255,#256));
#165=EDGE_LOOP('',(#257,#258));
#166=AXIS2_PLACEMENT_3D('',#259,#260,#261);
#167=SURFACE_SIDE_STYLE('',(#262));
#168=EDGE_LOOP('',(#263,#264,#265,#266));
#169=AXIS2_PLACEMENT_3D('',#267,#268,#269);
#170=SURFACE_SIDE_STYLE('',(#270));
#171=EDGE_LOOP('',(#271,#272,#273,#274));
#172=AXIS2_PLACEMENT_3D('',#275,#276,#277);
#173=SURFACE_SIDE_STYLE('',(#278));
#174=EDGE_LOOP('',(#279,#280,#281,#282));
#175=AXIS2_PLACEMENT_3D('',#283,#284,#285);
#176=SURFACE_SIDE_STYLE('',(#286));
#177=EDGE_LOOP('',(#287,#288));
#178=EDGE_LOOP('',(#289,#290));
#179=AXIS2_PLACEMENT_3D('',#291,#292,#293);
#180=SURFACE_SIDE_STYLE('',(#294));
#182=SURFACE_STYLE_FILL_AREA(#295);
#183=ORIENTED_EDGE('',*,*,#296,.F.);
#184=ORIENTED_EDGE('',*,*,#297,.T.);
#185=ORIENTED_EDGE('',*,*,#298,.F.);
#186=ORIENTED_EDGE('',*,*,#299,.F.);
#187=CARTESIAN_POINT('',(0.0,0.0,11.5187141618703));
#188=DIRECTION('',(0.0,0.0,-1.0));
#189=DIRECTION('',(1.0,0.0,0.0));
#190=SURFACE_STYLE_FILL_AREA(#300);
#191=ORIENTED_EDGE('',*,*,#301,.F.);
#192=ORIENTED_EDGE('',*,*,#302,.F.);
#193=ORIENTED_EDGE('',*,*,#303,.F.);
#194=ORIENTED_EDGE('',*,*,#304,.T.);
#195=CARTESIAN_POINT('',(0.0,0.0,40.7974283237407));
#196=DIRECTION('',(0.0,-0.0,-1.0));
#197=DIRECTION('',(1.0,0.0,0.0));
#198=SURFACE_STYLE_FILL_AREA(#305);
#199=ORIENTED_EDGE('',*,*,#306,.F.);
#200=ORIENTED_EDGE('',*,*,#307,.T.);
#201=ORIENTED_EDGE('',*,*,#308,.F.);
#202=ORIENTED_EDGE('',*,*,#309,.F.);
#203=CARTESIAN_POINT('',(0.0,0.0,64.7787141618704));
#204=DIRECTION('',(0.0,0.0,-1.0));
#205=DIRECTION('',(1.0,0.0,0.0));
#206=SURFACE_STYLE_FILL_AREA(#310);
#207=ORIENTED_EDGE('',*,*,#311,.F.);
#208=ORIENTED_EDGE('',*,*,#312,.T.);
#209=ORIENTED_EDGE('',*,*,#313,.F.);
#210=ORIENTED_EDGE('',*,*,#314,.F.);
#211=CARTESIAN_POINT('',(0.0,0.0,65.0));
#212=DIRECTION('',(0.0,0.0,-1.0));
#213=DIRECTION('',(1.0,0.0,0.0));
#214=SURFACE_STYLE_FILL_AREA(#315);
#215=ORIENTED_EDGE('',*,*,#316,.F.);
#216=ORIENTED_EDGE('',*,*,#317,.F.);
#217=ORIENTED_EDGE('',*,*,#318,.F.);
#218=ORIENTED_EDGE('',*,*,#319,.T.);
#219=CARTESIAN_POINT('',(0.0,0.0,39.0));
#220=DIRECTION('',(0.0,-0.0,-1.0));
#221=DIRECTION('',(1.0,0.0,0.0));
#222=SURFACE_STYLE_FILL_AREA(#320);
#223=ORIENTED_EDGE('',*,*,#321,.F.);
#224=ORIENTED_EDGE('',*,*,#322,.T.);
#225=ORIENTED_EDGE('',*,*,#323,.F.);
#226=ORIENTED_EDGE('',*,*,#324,.F.);
#227=CARTESIAN_POINT('',(0.0,0.0,9.5));
#228=DIRECTION('',(0.0,0.0,-1.0));
#229=DIRECTION('',(1.0,0.0,0.0));
#230=SURFACE_STYLE_FILL_AREA(#325);
#231=ORIENTED_EDGE('',*,*,#321,.T.);
#232=ORIENTED_EDGE('',*,*,#319,.F.);
#233=ORIENTED_EDGE('',*,*,#323,.T.);
#234=ORIENTED_EDGE('',*,*,#326,.T.);
#235=CARTESIAN_POINT('',(0.0,0.0,9.5));
#236=DIRECTION('',(0.0,0.0,-1.0));
#237=DIRECTION('',(1.0,0.0,0.0));
#238=SURFACE_STYLE_FILL_AREA(#327);
#239=ORIENTED_EDGE('',*,*,#316,.T.);
#240=ORIENTED_EDGE('',*,*,#324,.T.);
#241=ORIENTED_EDGE('',*,*,#318,.T.);
#242=ORIENTED_EDGE('',*,*,#312,.F.);
#243=CARTESIAN_POINT('',(0.0,0.0,39.0));
#244=DIRECTION('',(0.0,-0.0,-1.0));
#245=DIRECTION('',(1.0,0.0,0.0));
#246=SURFACE_STYLE_FILL_AREA(#328);
#247=ORIENTED_EDGE('',*,*,#311,.T.);
#248=ORIENTED_EDGE('',*,*,#329,.F.);
#249=ORIENTED_EDGE('',*,*,#313,.T.);
#250=ORIENTED_EDGE('',*,*,#317,.T.);
#251=CARTESIAN_POINT('',(0.0,0.0,65.0));
#252=DIRECTION('',(0.0,0.0,-1.0));
#253=DIRECTION('',(1.0,0.0,0.0));
#254=SURFACE_STYLE_FILL_AREA(#330);
#255=ORIENTED_EDGE('',*,*,#314,.T.);
#256=ORIENTED_EDGE('',*,*,#329,.T.);
#257=ORIENTED_EDGE('',*,*,#307,.F.);
#258=ORIENTED_EDGE('',*,*,#331,.F.);
#259=CARTESIAN_POINT('',(22.1,0.0,71.0));
#260=DIRECTION('',(0.0,0.0,1.0));
#261=DIRECTION('',(1.0,-0.0,0.0));
#262=SURFACE_STYLE_FILL_AREA(#332);
#263=ORIENTED_EDGE('',*,*,#306,.T.);
#264=ORIENTED_EDGE('',*,*,#304,.F.);
#265=ORIENTED_EDGE('',*,*,#308,.T.);
#266=ORIENTED_EDGE('',*,*,#331,.T.);
#267=CARTESIAN_POINT('',(0.0,0.0,64.7787141618704));
#268=DIRECTION('',(0.0,0.0,-1.0));
#269=DIRECTION('',(1.0,0.0,0.0));
#270=SURFACE_STYLE_FILL_AREA(#333);
#271=ORIENTED_EDGE('',*,*,#301,.T.);
#272=ORIENTED_EDGE('',*,*,#309,.T.);
#273=ORIENTED_EDGE('',*,*,#303,.T.);
#274=ORIENTED_EDGE('',*,*,#297,.F.);
#275=CARTESIAN_POINT('',(0.0,0.0,40.7974283237407));
#276=DIRECTION('',(0.0,-0.0,-1.0));
#277=DIRECTION('',(1.0,0.0,0.0));
#278=SURFACE_STYLE_FILL_AREA(#334);
#279=ORIENTED_EDGE('',*,*,#296,.T.);
#280=ORIENTED_EDGE('',*,*,#335,.F.);
#281=ORIENTED_EDGE('',*,*,#298,.T.);
#282=ORIENTED_EDGE('',*,*,#302,.T.);
#283=CARTESIAN_POINT('',(0.0,0.0,11.5187141618703));
#284=DIRECTION('',(0.0,0.0,-1.0));
#285=DIRECTION('',(1.0,0.0,0.0));
#286=SURFACE_STYLE_FILL_AREA(#336);
#287=ORIENTED_EDGE('',*,*,#299,.T.);
#288=ORIENTED_EDGE('',*,*,#335,.T.);
#289=ORIENTED_EDGE('',*,*,#322,.F.);
#290=ORIENTED_EDGE('',*,*,#326,.F.);
#291=CARTESIAN_POINT('',(37.5,0.0,0.0));
#292=DIRECTION('',(0.0,0.0,-1.0));
#293=DIRECTION('',(0.0,-1.0,0.0));
#294=SURFACE_STYLE_FILL_AREA(#337);
#295=FILL_AREA_STYLE('',(#338));
#296=EDGE_CURVE('',#339,#340,#341,.T.);
#297=EDGE_CURVE('',#339,#342,#343,.T.);
#298=EDGE_CURVE('',#344,#342,#345,.T.);
#299=EDGE_CURVE('',#340,#344,#346,.T.);
#300=FILL_AREA_STYLE('',(#347));
#301=EDGE_CURVE('',#339,#348,#349,.T.);
#302=EDGE_CURVE('',#342,#339,#350,.T.);
#303=EDGE_CURVE('',#351,#342,#352,.T.);
#304=EDGE_CURVE('',#351,#348,#353,.T.);
#305=FILL_AREA_STYLE('',(#354));
#306=EDGE_CURVE('',#355,#348,#356,.T.);
#307=EDGE_CURVE('',#355,#357,#358,.T.);
#308=EDGE_CURVE('',#351,#357,#359,.T.);
#309=EDGE_CURVE('',#348,#351,#360,.T.);
#310=FILL_AREA_STYLE('',(#361));
#311=EDGE_CURVE('',#362,#363,#364,.T.);
#312=EDGE_CURVE('',#362,#365,#366,.T.);
#313=EDGE_CURVE('',#367,#365,#368,.T.);
#314=EDGE_CURVE('',#363,#367,#369,.T.);
#315=FILL_AREA_STYLE('',(#370));
#316=EDGE_CURVE('',#362,#371,#372,.T.);
#317=EDGE_CURVE('',#365,#362,#373,.T.);
#318=EDGE_CURVE('',#374,#365,#375,.T.);
#319=EDGE_CURVE('',#374,#371,#376,.T.);
#320=FILL_AREA_STYLE('',(#377));
#321=EDGE_CURVE('',#378,#371,#379,.T.);
#322=EDGE_CURVE('',#378,#380,#381,.T.);
#323=EDGE_CURVE('',#374,#380,#382,.T.);
#324=EDGE_CURVE('',#371,#374,#383,.T.);
#325=FILL_AREA_STYLE('',(#384));
#326=EDGE_CURVE('',#380,#378,#385,.T.);
#327=FILL_AREA_STYLE('',(#386));
#328=FILL_AREA_STYLE('',(#387));
#329=EDGE_CURVE('',#367,#363,#388,.T.);
#330=FILL_AREA_STYLE('',(#389));
#331=EDGE_CURVE('',#357,#355,#390,.T.);
#332=FILL_AREA_STYLE('',(#391));
#333=FILL_AREA_STYLE('',(#392));
#334=FILL_AREA_STYLE('',(#393));
#335=EDGE_CURVE('',#344,#340,#394,.T.);
#336=FILL_AREA_STYLE('',(#395));
#337=FILL_AREA_STYLE('',(#396));
#338=FILL_AREA_STYLE_COLOUR('',#397);
#339=VERTEX_POINT('',#398);
#340=VERTEX_POINT('',#399);
#341=LINE('',#400,#401);
#342=VERTEX_POINT('',#402);
#343=CIRCLE('',#403,33.2);
#344=VERTEX_POINT('',#404);
#345=LINE('',#405,#406);
#346=CIRCLE('',#407,33.2);
#347=FILL_AREA_STYLE_COLOUR('',#408);
#348=VERTEX_POINT('',#409);
#349=LINE('',#410,#411);
#350=CIRCLE('',#412,33.2);
#351=VERTEX_POINT('',#413);
#352=LINE('',#414,#415);
#353=CIRCLE('',#416,22.1);
#354=FILL_AREA_STYLE_COLOUR('',#417);
#355=VERTEX_POINT('',#418);
#356=LINE('',#419,#420);
#357=VERTEX_POINT('',#421);
#358=CIRCLE('',#422,22.1);
#359=LINE('',#423,#424);
#360=CIRCLE('',#425,22.1);
#361=FILL_AREA_STYLE_COLOUR('',#426);
#362=VERTEX_POINT('',#427);
#363=VERTEX_POINT('',#428);
#364=LINE('',#429,#430);
#365=VERTEX_POINT('',#431);
#366=CIRCLE('',#432,25.0);
#367=VERTEX_POINT('',#433);
#368=LINE('',#434,#435);
#369=CIRCLE('',#436,25.0);
#370=FILL_AREA_STYLE_COLOUR('',#437);
#371=VERTEX_POINT('',#438);
#372=LINE('',#439,#440);
#373=CIRCLE('',#441,25.0);
#374=VERTEX_POINT('',#442);
#375=LINE('',#443,#444);
#376=CIRCLE('',#445,37.5);
#377=FILL_AREA_STYLE_COLOUR('',#446);
#378=VERTEX_POINT('',#447);
#379=LINE('',#448,#449);
#380=VERTEX_POINT('',#450);
#381=CIRCLE('',#451,37.5);
#382=LINE('',#452,#453);
#383=CIRCLE('',#454,37.5);
#384=FILL_AREA_STYLE_COLOUR('',#455);
#385=CIRCLE('',#456,37.5);
#386=FILL_AREA_STYLE_COLOUR('',#457);
#387=FILL_AREA_STYLE_COLOUR('',#458);
#388=CIRCLE('',#459,25.0);
#389=FILL_AREA_STYLE_COLOUR('',#460);
#390=CIRCLE('',#461,22.1);
#391=FILL_AREA_STYLE_COLOUR('',#462);
#392=FILL_AREA_STYLE_COLOUR('',#463);
#393=FILL_AREA_STYLE_COLOUR('',#464);
#394=CIRCLE('',#465,33.2);
#395=FILL_AREA_STYLE_COLOUR('',#466);
#396=FILL_AREA_STYLE_COLOUR('',#467);
#397=COLOUR_RGB('',0.905882358551025,0.839215695858002,0.674509823322296);
#398=CARTESIAN_POINT('',(33.2,0.0,23.0374283237407));
#399=CARTESIAN_POINT('',(33.2,0.0,0.0));
#400=CARTESIAN_POINT('',(33.2,4.06569309469029E-015,11.5187141618703));
#401=VECTOR('',#468,1.0);
#402=CARTESIAN_POINT('',(-33.2,4.06569309469029E-015,23.0374283237407));
#403=AXIS2_PLACEMENT_3D('',#469,#470,#471);
#404=CARTESIAN_POINT('',(-33.2,-4.06569309469029E-015,0.0));
#405=CARTESIAN_POINT('',(-33.2,-4.06569309469029E-015,11.5187141618703));
#406=VECTOR('',#472,1.0);
#407=AXIS2_PLACEMENT_3D('',#473,#474,#475);
#408=COLOUR_RGB('',0.905882358551025,0.839215695858002,0.674509823322296);
#409=CARTESIAN_POINT('',(22.1,0.0,58.5574283237407));
#410=CARTESIAN_POINT('',(27.65,-3.38603656831887E-015,40.7974283237407));
#411=VECTOR('',#476,1.0);
#412=AXIS2_PLACEMENT_3D('',#477,#478,#479);
#413=CARTESIAN_POINT('',(-22.1,-2.70638004194745E-015,58.5574283237407));
#414=CARTESIAN_POINT('',(-27.65,3.38603656831887E-015,40.7974283237407));
#415=VECTOR('',#480,1.0);
#416=AXIS2_PLACEMENT_3D('',#481,#482,#483);
#417=COLOUR_RGB('',0.905882358551025,0.839215695858002,0.674509823322296);
#418=CARTESIAN_POINT('',(22.1,0.0,71.0));
#419=CARTESIAN_POINT('',(22.1,2.70638004194745E-015,64.7787141618704));
#420=VECTOR('',#484,1.0);
#421=CARTESIAN_POINT('',(-22.1,-2.70638004194745E-015,71.0));
#422=AXIS2_PLACEMENT_3D('',#485,#486,#487);
#423=CARTESIAN_POINT('',(-22.1,-2.70638004194745E-015,64.7787141618704));
#424=VECTOR('',#488,1.0);
#425=AXIS2_PLACEMENT_3D('',#489,#490,#491);
#426=COLOUR_RGB('',0.905882358551025,0.839215695858002,0.674509823322296);
#427=CARTESIAN_POINT('',(25.0,0.0,59.0));
#428=CARTESIAN_POINT('',(25.0,0.0,71.0));
#429=CARTESIAN_POINT('',(25.0,3.06151588455594E-015,65.0));
#430=VECTOR('',#492,1.0);
#431=CARTESIAN_POINT('',(-25.0,3.06151588455594E-015,59.0));
#432=AXIS2_PLACEMENT_3D('',#493,#494,#495);
#433=CARTESIAN_POINT('',(-25.0,-3.06151588455594E-015,71.0));
#434=CARTESIAN_POINT('',(-25.0,-3.06151588455594E-015,65.0));
#435=VECTOR('',#496,1.0);
#436=AXIS2_PLACEMENT_3D('',#497,#498,#499);
#437=COLOUR_RGB('',0.905882358551025,0.839215695858002,0.674509823322296);
#438=CARTESIAN_POINT('',(37.5,0.0,19.0));
#439=CARTESIAN_POINT('',(31.25,-3.82689485569493E-015,39.0));
#440=VECTOR('',#500,1.0);
#441=AXIS2_PLACEMENT_3D('',#501,#502,#503);
#442=CARTESIAN_POINT('',(-37.5,-4.59227382683391E-015,19.0));
#443=CARTESIAN_POINT('',(-31.25,3.82689485569493E-015,39.0));
#444=VECTOR('',#504,1.0);
#445=AXIS2_PLACEMENT_3D('',#505,#506,#507);
#446=COLOUR_RGB('',0.905882358551025,0.839215695858002,0.674509823322296);
#447=CARTESIAN_POINT('',(37.5,0.0,0.0));
#448=CARTESIAN_POINT('',(37.5,4.59227382683391E-015,9.5));
#449=VECTOR('',#508,1.0);
#450=CARTESIAN_POINT('',(-37.5,-4.59227382683391E-015,0.0));
#451=AXIS2_PLACEMENT_3D('',#509,#510,#511);
#452=CARTESIAN_POINT('',(-37.5,-4.59227382683391E-015,9.5));
#453=VECTOR('',#512,1.0);
#454=AXIS2_PLACEMENT_3D('',#513,#514,#515);
#455=COLOUR_RGB('',0.905882358551025,0.839215695858002,0.674509823322296);
#456=AXIS2_PLACEMENT_3D('',#516,#517,#518);
#457=COLOUR_RGB('',0.905882358551025,0.839215695858002,0.674509823322296);
#458=COLOUR_RGB('',0.905882358551025,0.839215695858002,0.674509823322296);
#459=AXIS2_PLACEMENT_3D('',#519,#520,#521);
#460=COLOUR_RGB('',0.905882358551025,0.839215695858002,0.674509823322296);
#461=AXIS2_PLACEMENT_3D('',#522,#523,#524);
#462=COLOUR_RGB('',0.905882358551025,0.839215695858002,0.674509823322296);
#463=COLOUR_RGB('',0.905882358551025,0.839215695858002,0.674509823322296);
#464=COLOUR_RGB('',0.905882358551025,0.839215695858002,0.674509823322296);
#465=AXIS2_PLACEMENT_3D('',#525,#526,#527);
#466=COLOUR_RGB('',0.905882358551025,0.839215695858002,0.674509823322296);
#467=COLOUR_RGB('',0.905882358551025,0.839215695858002,0.674509823322296);
#468=DIRECTION('',(-0.0,-0.0,-1.0));
#469=CARTESIAN_POINT('',(0.0,0.0,23.0374283237407));
#470=DIRECTION('',(0.0,0.0,1.0));
#471=DIRECTION('',(1.0,0.0,0.0));
#472=DIRECTION('',(-0.0,-0.0,1.0));
#473=CARTESIAN_POINT('',(0.0,0.0,0.0));
#474=DIRECTION('',(0.0,0.0,1.0));
#475=DIRECTION('',(1.0,0.0,0.0));
#476=DIRECTION('',(-0.298274993136886,3.65269451781756E-017,0.954479978034736));
#477=CARTESIAN_POINT('',(0.0,0.0,23.0374283237407));
#478=DIRECTION('',(0.0,0.0,1.0));
#479=DIRECTION('',(1.0,0.0,0.0));
#480=DIRECTION('',(-0.298274993136886,3.65269451781756E-017,-0.954479978034736));
#481=CARTESIAN_POINT('',(0.0,0.0,58.5574283237407));
#482=DIRECTION('',(0.0,0.0,1.0));
#483=DIRECTION('',(1.0,0.0,0.0));
#484=DIRECTION('',(-0.0,-0.0,-1.0));
#485=CARTESIAN_POINT('',(0.0,0.0,71.0));
#486=DIRECTION('',(0.0,0.0,1.0));
#487=DIRECTION('',(1.0,0.0,0.0));
#488=DIRECTION('',(-0.0,-0.0,1.0));
#489=CARTESIAN_POINT('',(0.0,0.0,58.5574283237407));
#490=DIRECTION('',(0.0,0.0,1.0));
#491=DIRECTION('',(1.0,0.0,0.0));
#492=DIRECTION('',(-0.0,-0.0,1.0));
#493=CARTESIAN_POINT('',(0.0,0.0,59.0));
#494=DIRECTION('',(0.0,0.0,1.0));
#495=DIRECTION('',(1.0,0.0,0.0));
#496=DIRECTION('',(0.0,0.0,-1.0));
#497=CARTESIAN_POINT('',(0.0,0.0,71.0));
#498=DIRECTION('',(0.0,0.0,1.0));
#499=DIRECTION('',(1.0,0.0,0.0));
#500=DIRECTION('',(0.298274993136886,-3.65269451781756E-017,-0.954479978034736));
#501=CARTESIAN_POINT('',(0.0,0.0,59.0));
#502=DIRECTION('',(0.0,0.0,1.0));
#503=DIRECTION('',(1.0,0.0,0.0));
#504=DIRECTION('',(0.298274993136886,-3.65269451781756E-017,0.954479978034736));
#505=CARTESIAN_POINT('',(0.0,0.0,19.0));
#506=DIRECTION('',(0.0,0.0,1.0));
#507=DIRECTION('',(1.0,0.0,0.0));
#508=DIRECTION('',(-0.0,-0.0,1.0));
#509=CARTESIAN_POINT('',(0.0,0.0,0.0));
#510=DIRECTION('',(0.0,0.0,1.0));
#511=DIRECTION('',(1.0,0.0,0.0));
#512=DIRECTION('',(0.0,0.0,-1.0));
#513=CARTESIAN_POINT('',(0.0,0.0,19.0));
#514=DIRECTION('',(0.0,0.0,1.0));
#515=DIRECTION('',(1.0,0.0,0.0));
#516=CARTESIAN_POINT('',(0.0,0.0,0.0));
#517=DIRECTION('',(0.0,0.0,1.0));
#518=DIRECTION('',(1.0,0.0,0.0));
#519=CARTESIAN_POINT('',(0.0,0.0,71.0));
#520=DIRECTION('',(0.0,0.0,1.0));
#521=DIRECTION('',(1.0,0.0,0.0));
#522=CARTESIAN_POINT('',(0.0,0.0,71.0));
#523=DIRECTION('',(0.0,0.0,1.0));
#524=DIRECTION('',(1.0,0.0,0.0));
#525=CARTESIAN_POINT('',(0.0,0.0,0.0));
#526=DIRECTION('',(0.0,0.0,1.0));
#527=DIRECTION('',(1.0,0.0,0.0));
ENDSEC;
END-ISO-10303-21;
