ISO-10303-21;
HEADER;
/* Generated by software containing ST-Developer
 * from STEP Tools, Inc. (www.steptools.com) 
 */

FILE_DESCRIPTION(
/* description */ (''),
/* implementation_level */ '2;1');

FILE_NAME(
/* name */ 'C:\\Users\\Gabriele\\Desktop\\disegni 3D\\TE40\\TE402800.s
tp',
/* time_stamp */ '2017-01-24T16:37:38+01:00',
/* author */ ('Gabriele'),
/* organization */ (''),
/* preprocessor_version */ 'ST-DEVELOPER v16.5',
/* originating_system */ 'Autodesk Inventor 2017',
/* authorisation */ '');

FILE_SCHEMA (('AUTOMOTIVE_DESIGN { 1 0 10303 214 3 1 1 }'));
ENDSEC;

DATA;
#10=MECHANICAL_DESIGN_GEOMETRIC_PRESENTATION_REPRESENTATION('',(#13),#419);
#11=SHAPE_REPRESENTATION_RELATIONSHIP('SRR','None',#428,#12);
#12=ADVANCED_BREP_SHAPE_REPRESENTATION('',(#14),#418);
#13=STYLED_ITEM('',(#437),#14);
#14=MANIFOLD_SOLID_BREP('Solido2',#231);
#15=FACE_BOUND('',#68,.T.);
#16=FACE_BOUND('',#71,.T.);
#17=FACE_BOUND('',#73,.T.);
#18=FACE_BOUND('',#75,.T.);
#19=FACE_BOUND('',#76,.T.);
#20=FACE_BOUND('',#78,.T.);
#21=FACE_BOUND('',#80,.T.);
#22=FACE_BOUND('',#82,.T.);
#23=FACE_BOUND('',#84,.T.);
#24=FACE_BOUND('',#86,.T.);
#25=FACE_BOUND('',#88,.T.);
#26=FACE_BOUND('',#90,.T.);
#27=FACE_BOUND('',#92,.T.);
#28=FACE_BOUND('',#93,.T.);
#29=FACE_BOUND('',#95,.T.);
#30=ELLIPSE('',#236,190.918830920368,135.);
#31=ELLIPSE('',#238,190.918830920368,135.);
#32=ELLIPSE('',#240,190.918830920368,135.);
#33=ELLIPSE('',#241,190.918830920368,135.);
#34=ELLIPSE('',#243,190.918830920368,135.);
#35=ELLIPSE('',#244,190.918830920368,135.);
#36=ELLIPSE('',#263,225.567063198509,159.5);
#37=ELLIPSE('',#264,225.567063198509,159.5);
#38=CYLINDRICAL_SURFACE('',#235,135.);
#39=CYLINDRICAL_SURFACE('',#239,135.);
#40=CYLINDRICAL_SURFACE('',#242,135.);
#41=CYLINDRICAL_SURFACE('',#247,140.);
#42=CYLINDRICAL_SURFACE('',#251,135.);
#43=CYLINDRICAL_SURFACE('',#254,140.);
#44=CYLINDRICAL_SURFACE('',#258,140.);
#45=CYLINDRICAL_SURFACE('',#262,159.5);
#46=CYLINDRICAL_SURFACE('',#269,159.5);
#47=FACE_OUTER_BOUND('',#64,.T.);
#48=FACE_OUTER_BOUND('',#65,.T.);
#49=FACE_OUTER_BOUND('',#66,.T.);
#50=FACE_OUTER_BOUND('',#67,.T.);
#51=FACE_OUTER_BOUND('',#69,.T.);
#52=FACE_OUTER_BOUND('',#70,.T.);
#53=FACE_OUTER_BOUND('',#72,.T.);
#54=FACE_OUTER_BOUND('',#74,.T.);
#55=FACE_OUTER_BOUND('',#77,.T.);
#56=FACE_OUTER_BOUND('',#79,.T.);
#57=FACE_OUTER_BOUND('',#81,.T.);
#58=FACE_OUTER_BOUND('',#83,.T.);
#59=FACE_OUTER_BOUND('',#85,.T.);
#60=FACE_OUTER_BOUND('',#87,.T.);
#61=FACE_OUTER_BOUND('',#89,.T.);
#62=FACE_OUTER_BOUND('',#91,.T.);
#63=FACE_OUTER_BOUND('',#94,.T.);
#64=EDGE_LOOP('',(#158,#159));
#65=EDGE_LOOP('',(#160,#161,#162));
#66=EDGE_LOOP('',(#163,#164,#165));
#67=EDGE_LOOP('',(#166,#167));
#68=EDGE_LOOP('',(#168));
#69=EDGE_LOOP('',(#169,#170));
#70=EDGE_LOOP('',(#171));
#71=EDGE_LOOP('',(#172));
#72=EDGE_LOOP('',(#173));
#73=EDGE_LOOP('',(#174));
#74=EDGE_LOOP('',(#175));
#75=EDGE_LOOP('',(#176,#177,#178,#179,#180,#181,#182,#183));
#76=EDGE_LOOP('',(#184));
#77=EDGE_LOOP('',(#185));
#78=EDGE_LOOP('',(#186));
#79=EDGE_LOOP('',(#187));
#80=EDGE_LOOP('',(#188));
#81=EDGE_LOOP('',(#189));
#82=EDGE_LOOP('',(#190));
#83=EDGE_LOOP('',(#191));
#84=EDGE_LOOP('',(#192));
#85=EDGE_LOOP('',(#193,#194));
#86=EDGE_LOOP('',(#195));
#87=EDGE_LOOP('',(#196));
#88=EDGE_LOOP('',(#197));
#89=EDGE_LOOP('',(#198));
#90=EDGE_LOOP('',(#199));
#91=EDGE_LOOP('',(#200));
#92=EDGE_LOOP('',(#201,#202));
#93=EDGE_LOOP('',(#203));
#94=EDGE_LOOP('',(#204));
#95=EDGE_LOOP('',(#205));
#96=CIRCLE('',#234,135.);
#97=CIRCLE('',#237,135.);
#98=CIRCLE('',#245,135.);
#99=CIRCLE('',#248,140.);
#100=CIRCLE('',#249,140.);
#101=CIRCLE('',#252,135.);
#102=CIRCLE('',#253,135.);
#103=CIRCLE('',#255,140.);
#104=CIRCLE('',#256,140.);
#105=CIRCLE('',#259,140.);
#106=CIRCLE('',#260,140.);
#107=CIRCLE('',#265,159.5);
#108=CIRCLE('',#268,159.5);
#109=CIRCLE('',#270,159.5);
#110=LINE('',#358,#112);
#111=LINE('',#377,#113);
#112=VECTOR('',#276,10.);
#113=VECTOR('',#303,10.);
#114=VERTEX_POINT('',#356);
#115=VERTEX_POINT('',#357);
#116=VERTEX_POINT('',#361);
#117=VERTEX_POINT('',#362);
#118=VERTEX_POINT('',#364);
#119=VERTEX_POINT('',#368);
#120=VERTEX_POINT('',#374);
#121=VERTEX_POINT('',#379);
#122=VERTEX_POINT('',#381);
#123=VERTEX_POINT('',#385);
#124=VERTEX_POINT('',#387);
#125=VERTEX_POINT('',#390);
#126=VERTEX_POINT('',#392);
#127=VERTEX_POINT('',#396);
#128=VERTEX_POINT('',#398);
#129=VERTEX_POINT('',#402);
#130=VERTEX_POINT('',#403);
#131=VERTEX_POINT('',#406);
#132=VERTEX_POINT('',#410);
#133=VERTEX_POINT('',#413);
#134=EDGE_CURVE('',#114,#115,#110,.T.);
#135=EDGE_CURVE('',#115,#114,#96,.T.);
#136=EDGE_CURVE('',#116,#117,#30,.T.);
#137=EDGE_CURVE('',#116,#118,#97,.T.);
#138=EDGE_CURVE('',#117,#118,#31,.T.);
#139=EDGE_CURVE('',#115,#119,#32,.T.);
#140=EDGE_CURVE('',#119,#114,#33,.T.);
#141=EDGE_CURVE('',#117,#119,#34,.T.);
#142=EDGE_CURVE('',#119,#117,#35,.T.);
#143=EDGE_CURVE('',#120,#120,#98,.T.);
#144=EDGE_CURVE('',#118,#116,#111,.T.);
#145=EDGE_CURVE('',#121,#121,#99,.T.);
#146=EDGE_CURVE('',#122,#122,#100,.T.);
#147=EDGE_CURVE('',#123,#123,#101,.T.);
#148=EDGE_CURVE('',#124,#124,#102,.T.);
#149=EDGE_CURVE('',#125,#125,#103,.T.);
#150=EDGE_CURVE('',#126,#126,#104,.T.);
#151=EDGE_CURVE('',#127,#127,#105,.T.);
#152=EDGE_CURVE('',#128,#128,#106,.T.);
#153=EDGE_CURVE('',#129,#130,#36,.T.);
#154=EDGE_CURVE('',#130,#129,#37,.T.);
#155=EDGE_CURVE('',#131,#131,#107,.T.);
#156=EDGE_CURVE('',#132,#132,#108,.T.);
#157=EDGE_CURVE('',#133,#133,#109,.T.);
#158=ORIENTED_EDGE('',*,*,#134,.F.);
#159=ORIENTED_EDGE('',*,*,#135,.F.);
#160=ORIENTED_EDGE('',*,*,#136,.F.);
#161=ORIENTED_EDGE('',*,*,#137,.T.);
#162=ORIENTED_EDGE('',*,*,#138,.F.);
#163=ORIENTED_EDGE('',*,*,#139,.F.);
#164=ORIENTED_EDGE('',*,*,#135,.T.);
#165=ORIENTED_EDGE('',*,*,#140,.F.);
#166=ORIENTED_EDGE('',*,*,#141,.F.);
#167=ORIENTED_EDGE('',*,*,#142,.F.);
#168=ORIENTED_EDGE('',*,*,#143,.F.);
#169=ORIENTED_EDGE('',*,*,#144,.F.);
#170=ORIENTED_EDGE('',*,*,#137,.F.);
#171=ORIENTED_EDGE('',*,*,#145,.T.);
#172=ORIENTED_EDGE('',*,*,#146,.F.);
#173=ORIENTED_EDGE('',*,*,#145,.F.);
#174=ORIENTED_EDGE('',*,*,#143,.T.);
#175=ORIENTED_EDGE('',*,*,#147,.F.);
#176=ORIENTED_EDGE('',*,*,#141,.T.);
#177=ORIENTED_EDGE('',*,*,#140,.T.);
#178=ORIENTED_EDGE('',*,*,#134,.T.);
#179=ORIENTED_EDGE('',*,*,#139,.T.);
#180=ORIENTED_EDGE('',*,*,#142,.T.);
#181=ORIENTED_EDGE('',*,*,#138,.T.);
#182=ORIENTED_EDGE('',*,*,#144,.T.);
#183=ORIENTED_EDGE('',*,*,#136,.T.);
#184=ORIENTED_EDGE('',*,*,#148,.F.);
#185=ORIENTED_EDGE('',*,*,#149,.F.);
#186=ORIENTED_EDGE('',*,*,#150,.F.);
#187=ORIENTED_EDGE('',*,*,#149,.T.);
#188=ORIENTED_EDGE('',*,*,#148,.T.);
#189=ORIENTED_EDGE('',*,*,#151,.T.);
#190=ORIENTED_EDGE('',*,*,#152,.F.);
#191=ORIENTED_EDGE('',*,*,#151,.F.);
#192=ORIENTED_EDGE('',*,*,#147,.T.);
#193=ORIENTED_EDGE('',*,*,#153,.F.);
#194=ORIENTED_EDGE('',*,*,#154,.F.);
#195=ORIENTED_EDGE('',*,*,#155,.F.);
#196=ORIENTED_EDGE('',*,*,#155,.T.);
#197=ORIENTED_EDGE('',*,*,#146,.T.);
#198=ORIENTED_EDGE('',*,*,#156,.T.);
#199=ORIENTED_EDGE('',*,*,#150,.T.);
#200=ORIENTED_EDGE('',*,*,#156,.F.);
#201=ORIENTED_EDGE('',*,*,#154,.T.);
#202=ORIENTED_EDGE('',*,*,#153,.T.);
#203=ORIENTED_EDGE('',*,*,#157,.F.);
#204=ORIENTED_EDGE('',*,*,#157,.T.);
#205=ORIENTED_EDGE('',*,*,#152,.T.);
#206=PLANE('',#233);
#207=PLANE('',#246);
#208=PLANE('',#250);
#209=PLANE('',#257);
#210=PLANE('',#261);
#211=PLANE('',#266);
#212=PLANE('',#267);
#213=PLANE('',#271);
#214=ADVANCED_FACE('',(#47),#206,.T.);
#215=ADVANCED_FACE('',(#48),#38,.F.);
#216=ADVANCED_FACE('',(#49),#39,.F.);
#217=ADVANCED_FACE('',(#50,#15),#40,.F.);
#218=ADVANCED_FACE('',(#51),#207,.T.);
#219=ADVANCED_FACE('',(#52,#16),#41,.F.);
#220=ADVANCED_FACE('',(#53,#17),#208,.T.);
#221=ADVANCED_FACE('',(#54,#18,#19),#42,.F.);
#222=ADVANCED_FACE('',(#55,#20),#43,.F.);
#223=ADVANCED_FACE('',(#56,#21),#209,.F.);
#224=ADVANCED_FACE('',(#57,#22),#44,.F.);
#225=ADVANCED_FACE('',(#58,#23),#210,.T.);
#226=ADVANCED_FACE('',(#59,#24),#45,.T.);
#227=ADVANCED_FACE('',(#60,#25),#211,.T.);
#228=ADVANCED_FACE('',(#61,#26),#212,.F.);
#229=ADVANCED_FACE('',(#62,#27,#28),#46,.T.);
#230=ADVANCED_FACE('',(#63,#29),#213,.T.);
#231=CLOSED_SHELL('',(#214,#215,#216,#217,#218,#219,#220,#221,#222,#223,
#224,#225,#226,#227,#228,#229,#230));
#232=AXIS2_PLACEMENT_3D('placement',#354,#272,#273);
#233=AXIS2_PLACEMENT_3D('',#355,#274,#275);
#234=AXIS2_PLACEMENT_3D('',#359,#277,#278);
#235=AXIS2_PLACEMENT_3D('',#360,#279,#280);
#236=AXIS2_PLACEMENT_3D('',#363,#281,#282);
#237=AXIS2_PLACEMENT_3D('',#365,#283,#284);
#238=AXIS2_PLACEMENT_3D('',#366,#285,#286);
#239=AXIS2_PLACEMENT_3D('',#367,#287,#288);
#240=AXIS2_PLACEMENT_3D('',#369,#289,#290);
#241=AXIS2_PLACEMENT_3D('',#370,#291,#292);
#242=AXIS2_PLACEMENT_3D('',#371,#293,#294);
#243=AXIS2_PLACEMENT_3D('',#372,#295,#296);
#244=AXIS2_PLACEMENT_3D('',#373,#297,#298);
#245=AXIS2_PLACEMENT_3D('',#375,#299,#300);
#246=AXIS2_PLACEMENT_3D('',#376,#301,#302);
#247=AXIS2_PLACEMENT_3D('',#378,#304,#305);
#248=AXIS2_PLACEMENT_3D('',#380,#306,#307);
#249=AXIS2_PLACEMENT_3D('',#382,#308,#309);
#250=AXIS2_PLACEMENT_3D('',#383,#310,#311);
#251=AXIS2_PLACEMENT_3D('',#384,#312,#313);
#252=AXIS2_PLACEMENT_3D('',#386,#314,#315);
#253=AXIS2_PLACEMENT_3D('',#388,#316,#317);
#254=AXIS2_PLACEMENT_3D('',#389,#318,#319);
#255=AXIS2_PLACEMENT_3D('',#391,#320,#321);
#256=AXIS2_PLACEMENT_3D('',#393,#322,#323);
#257=AXIS2_PLACEMENT_3D('',#394,#324,#325);
#258=AXIS2_PLACEMENT_3D('',#395,#326,#327);
#259=AXIS2_PLACEMENT_3D('',#397,#328,#329);
#260=AXIS2_PLACEMENT_3D('',#399,#330,#331);
#261=AXIS2_PLACEMENT_3D('',#400,#332,#333);
#262=AXIS2_PLACEMENT_3D('',#401,#334,#335);
#263=AXIS2_PLACEMENT_3D('',#404,#336,#337);
#264=AXIS2_PLACEMENT_3D('',#405,#338,#339);
#265=AXIS2_PLACEMENT_3D('',#407,#340,#341);
#266=AXIS2_PLACEMENT_3D('',#408,#342,#343);
#267=AXIS2_PLACEMENT_3D('',#409,#344,#345);
#268=AXIS2_PLACEMENT_3D('',#411,#346,#347);
#269=AXIS2_PLACEMENT_3D('',#412,#348,#349);
#270=AXIS2_PLACEMENT_3D('',#414,#350,#351);
#271=AXIS2_PLACEMENT_3D('',#415,#352,#353);
#272=DIRECTION('axis',(0.,0.,1.));
#273=DIRECTION('refdir',(1.,0.,0.));
#274=DIRECTION('center_axis',(0.,1.,0.));
#275=DIRECTION('ref_axis',(0.,0.,1.));
#276=DIRECTION('',(0.,0.,1.));
#277=DIRECTION('center_axis',(0.,-1.,0.));
#278=DIRECTION('ref_axis',(-1.,0.,0.));
#279=DIRECTION('center_axis',(0.,-1.,0.));
#280=DIRECTION('ref_axis',(-1.,0.,0.));
#281=DIRECTION('center_axis',(0.,-0.707106781186548,0.707106781186547));
#282=DIRECTION('ref_axis',(0.,-0.707106781186547,-0.707106781186548));
#283=DIRECTION('center_axis',(0.,-1.,0.));
#284=DIRECTION('ref_axis',(-1.,0.,0.));
#285=DIRECTION('center_axis',(0.,-0.707106781186548,-0.707106781186547));
#286=DIRECTION('ref_axis',(0.,0.707106781186547,-0.707106781186548));
#287=DIRECTION('center_axis',(0.,-1.,0.));
#288=DIRECTION('ref_axis',(-1.,0.,0.));
#289=DIRECTION('center_axis',(0.,-0.707106781186548,-0.707106781186547));
#290=DIRECTION('ref_axis',(0.,0.707106781186547,-0.707106781186548));
#291=DIRECTION('center_axis',(0.,-0.707106781186548,0.707106781186547));
#292=DIRECTION('ref_axis',(0.,-0.707106781186547,-0.707106781186548));
#293=DIRECTION('center_axis',(0.,-1.,0.));
#294=DIRECTION('ref_axis',(-1.,0.,0.));
#295=DIRECTION('center_axis',(0.,0.707106781186548,0.707106781186547));
#296=DIRECTION('ref_axis',(0.,0.707106781186547,-0.707106781186548));
#297=DIRECTION('center_axis',(0.,0.707106781186548,-0.707106781186547));
#298=DIRECTION('ref_axis',(0.,-0.707106781186547,-0.707106781186548));
#299=DIRECTION('center_axis',(0.,-1.,0.));
#300=DIRECTION('ref_axis',(-1.,0.,0.));
#301=DIRECTION('center_axis',(0.,1.,0.));
#302=DIRECTION('ref_axis',(0.,0.,1.));
#303=DIRECTION('',(0.,0.,-1.));
#304=DIRECTION('center_axis',(0.,-1.,0.));
#305=DIRECTION('ref_axis',(-1.,0.,0.));
#306=DIRECTION('center_axis',(0.,-1.,0.));
#307=DIRECTION('ref_axis',(-1.,0.,0.));
#308=DIRECTION('center_axis',(0.,-1.,0.));
#309=DIRECTION('ref_axis',(-1.,0.,0.));
#310=DIRECTION('center_axis',(0.,1.,0.));
#311=DIRECTION('ref_axis',(0.,0.,1.));
#312=DIRECTION('center_axis',(0.,0.,1.));
#313=DIRECTION('ref_axis',(1.,0.,0.));
#314=DIRECTION('center_axis',(0.,0.,-1.));
#315=DIRECTION('ref_axis',(1.,0.,0.));
#316=DIRECTION('center_axis',(0.,0.,1.));
#317=DIRECTION('ref_axis',(1.,0.,0.));
#318=DIRECTION('center_axis',(0.,0.,-1.));
#319=DIRECTION('ref_axis',(-1.,0.,0.));
#320=DIRECTION('center_axis',(0.,0.,-1.));
#321=DIRECTION('ref_axis',(-1.,0.,0.));
#322=DIRECTION('center_axis',(0.,0.,1.));
#323=DIRECTION('ref_axis',(-1.,0.,0.));
#324=DIRECTION('center_axis',(0.,0.,1.));
#325=DIRECTION('ref_axis',(1.,0.,0.));
#326=DIRECTION('center_axis',(0.,0.,-1.));
#327=DIRECTION('ref_axis',(-1.,0.,0.));
#328=DIRECTION('center_axis',(0.,0.,-1.));
#329=DIRECTION('ref_axis',(-1.,0.,0.));
#330=DIRECTION('center_axis',(0.,0.,-1.));
#331=DIRECTION('ref_axis',(-1.,0.,0.));
#332=DIRECTION('center_axis',(0.,0.,1.));
#333=DIRECTION('ref_axis',(1.,0.,0.));
#334=DIRECTION('center_axis',(0.,1.,0.));
#335=DIRECTION('ref_axis',(1.,0.,0.));
#336=DIRECTION('center_axis',(0.,-0.707106781186548,-0.707106781186548));
#337=DIRECTION('ref_axis',(0.,0.707106781186547,-0.707106781186547));
#338=DIRECTION('center_axis',(0.,-0.707106781186548,0.707106781186548));
#339=DIRECTION('ref_axis',(0.,-0.707106781186547,-0.707106781186547));
#340=DIRECTION('center_axis',(0.,1.,0.));
#341=DIRECTION('ref_axis',(1.,0.,0.));
#342=DIRECTION('center_axis',(0.,1.,0.));
#343=DIRECTION('ref_axis',(0.,0.,1.));
#344=DIRECTION('center_axis',(0.,0.,1.));
#345=DIRECTION('ref_axis',(1.,0.,0.));
#346=DIRECTION('center_axis',(0.,0.,-1.));
#347=DIRECTION('ref_axis',(-1.,0.,0.));
#348=DIRECTION('center_axis',(0.,0.,1.));
#349=DIRECTION('ref_axis',(-1.,0.,0.));
#350=DIRECTION('center_axis',(0.,0.,1.));
#351=DIRECTION('ref_axis',(-1.,0.,0.));
#352=DIRECTION('center_axis',(0.,0.,1.));
#353=DIRECTION('ref_axis',(1.,0.,0.));
#354=CARTESIAN_POINT('',(0.,0.,0.));
#355=CARTESIAN_POINT('Origin',(-1.37772764904077E-15,-1.00000000000001,
0.));
#356=CARTESIAN_POINT('',(-134.99629624549,-1.00000000000001,-0.999999999999228));
#357=CARTESIAN_POINT('',(-134.99629624549,-1.00000000000001,0.999999999999228));
#358=CARTESIAN_POINT('',(-134.99629624549,-1.00000000000001,-142.));
#359=CARTESIAN_POINT('Origin',(0.,-1.00000000000001,0.));
#360=CARTESIAN_POINT('Origin',(0.,142.,0.));
#361=CARTESIAN_POINT('',(134.99629624549,-1.00000000000001,-0.999999999999228));
#362=CARTESIAN_POINT('',(135.,0.,0.));
#363=CARTESIAN_POINT('Origin',(0.,0.,0.));
#364=CARTESIAN_POINT('',(134.99629624549,-1.00000000000001,0.999999999999228));
#365=CARTESIAN_POINT('Origin',(0.,-1.00000000000001,0.));
#366=CARTESIAN_POINT('Origin',(0.,0.,0.));
#367=CARTESIAN_POINT('Origin',(0.,142.,0.));
#368=CARTESIAN_POINT('',(-135.,0.,0.));
#369=CARTESIAN_POINT('Origin',(0.,0.,0.));
#370=CARTESIAN_POINT('Origin',(0.,0.,0.));
#371=CARTESIAN_POINT('Origin',(0.,142.,0.));
#372=CARTESIAN_POINT('Origin',(0.,0.,0.));
#373=CARTESIAN_POINT('Origin',(0.,0.,0.));
#374=CARTESIAN_POINT('',(135.,142.,-1.65327317884893E-14));
#375=CARTESIAN_POINT('Origin',(0.,142.,0.));
#376=CARTESIAN_POINT('Origin',(-1.37772764904077E-15,-1.00000000000001,
0.));
#377=CARTESIAN_POINT('',(134.99629624549,-1.00000000000001,-142.));
#378=CARTESIAN_POINT('Origin',(0.,289.5,0.));
#379=CARTESIAN_POINT('',(140.,142.,-1.71450551880629E-14));
#380=CARTESIAN_POINT('Origin',(0.,142.,0.));
#381=CARTESIAN_POINT('',(140.,289.5,-1.71450551880629E-14));
#382=CARTESIAN_POINT('Origin',(0.,289.5,0.));
#383=CARTESIAN_POINT('Origin',(-8.19582827291096E-15,142.,0.));
#384=CARTESIAN_POINT('Origin',(0.,0.,-142.));
#385=CARTESIAN_POINT('',(-135.,1.65327317884893E-14,142.));
#386=CARTESIAN_POINT('Origin',(0.,0.,142.));
#387=CARTESIAN_POINT('',(-135.,1.65327317884893E-14,-142.));
#388=CARTESIAN_POINT('Origin',(0.,0.,-142.));
#389=CARTESIAN_POINT('Origin',(0.,0.,-289.5));
#390=CARTESIAN_POINT('',(140.,1.71450551880629E-14,-142.));
#391=CARTESIAN_POINT('Origin',(0.,0.,-142.));
#392=CARTESIAN_POINT('',(140.,1.71450551880629E-14,-289.5));
#393=CARTESIAN_POINT('Origin',(0.,0.,-289.5));
#394=CARTESIAN_POINT('Origin',(-8.19582827291096E-15,0.,-142.));
#395=CARTESIAN_POINT('Origin',(0.,0.,289.5));
#396=CARTESIAN_POINT('',(140.,1.71450551880629E-14,142.));
#397=CARTESIAN_POINT('Origin',(0.,0.,142.));
#398=CARTESIAN_POINT('',(140.,1.71450551880629E-14,289.5));
#399=CARTESIAN_POINT('Origin',(0.,0.,289.5));
#400=CARTESIAN_POINT('Origin',(-8.19582827291096E-15,0.,142.));
#401=CARTESIAN_POINT('Origin',(0.,0.,0.));
#402=CARTESIAN_POINT('',(-159.5,0.,1.95331164464003E-14));
#403=CARTESIAN_POINT('',(159.5,0.,0.));
#404=CARTESIAN_POINT('Origin',(0.,0.,0.));
#405=CARTESIAN_POINT('Origin',(0.,0.,0.));
#406=CARTESIAN_POINT('',(-159.5,289.5,1.95331164464003E-14));
#407=CARTESIAN_POINT('Origin',(0.,289.5,0.));
#408=CARTESIAN_POINT('Origin',(1.35072620781212E-14,289.5,2.96987559356364E-15));
#409=CARTESIAN_POINT('Origin',(-1.35072620781212E-14,2.96987559356364E-15,
-289.5));
#410=CARTESIAN_POINT('',(159.5,1.95331164464003E-14,-289.5));
#411=CARTESIAN_POINT('Origin',(0.,0.,-289.5));
#412=CARTESIAN_POINT('Origin',(0.,0.,0.));
#413=CARTESIAN_POINT('',(159.5,1.95331164464003E-14,289.5));
#414=CARTESIAN_POINT('Origin',(0.,0.,289.5));
#415=CARTESIAN_POINT('Origin',(-1.35072620781212E-14,2.96987559356364E-15,
289.5));
#416=UNCERTAINTY_MEASURE_WITH_UNIT(LENGTH_MEASURE(0.01),#420,
'DISTANCE_ACCURACY_VALUE',
'Maximum model space distance between geometric entities at asserted c
onnectivities');
#417=UNCERTAINTY_MEASURE_WITH_UNIT(LENGTH_MEASURE(1.E-6),#420,
'DISTANCE_ACCURACY_VALUE',
'Maximum model space distance between geometric entities at asserted c
onnectivities');
#418=(
GEOMETRIC_REPRESENTATION_CONTEXT(3)
GLOBAL_UNCERTAINTY_ASSIGNED_CONTEXT((#416))
GLOBAL_UNIT_ASSIGNED_CONTEXT((#420,#423,#421))
REPRESENTATION_CONTEXT('','3D')
);
#419=(
GEOMETRIC_REPRESENTATION_CONTEXT(3)
GLOBAL_UNCERTAINTY_ASSIGNED_CONTEXT((#417))
GLOBAL_UNIT_ASSIGNED_CONTEXT((#420,#423,#421))
REPRESENTATION_CONTEXT('','3D')
);
#420=(
LENGTH_UNIT()
NAMED_UNIT(*)
SI_UNIT(.MILLI.,.METRE.)
);
#421=(
NAMED_UNIT(*)
SI_UNIT($,.STERADIAN.)
SOLID_ANGLE_UNIT()
);
#422=DIMENSIONAL_EXPONENTS(0.,0.,0.,0.,0.,0.,0.);
#423=(
CONVERSION_BASED_UNIT('degree',#425)
NAMED_UNIT(#422)
PLANE_ANGLE_UNIT()
);
#424=(
NAMED_UNIT(*)
PLANE_ANGLE_UNIT()
SI_UNIT($,.RADIAN.)
);
#425=PLANE_ANGLE_MEASURE_WITH_UNIT(PLANE_ANGLE_MEASURE(0.01745329252),#424);
#426=SHAPE_DEFINITION_REPRESENTATION(#427,#428);
#427=PRODUCT_DEFINITION_SHAPE('',$,#430);
#428=SHAPE_REPRESENTATION('',(#232),#418);
#429=PRODUCT_DEFINITION_CONTEXT('part definition',#434,'design');
#430=PRODUCT_DEFINITION('TE402800','TE402800',#431,#429);
#431=PRODUCT_DEFINITION_FORMATION('',$,#436);
#432=PRODUCT_RELATED_PRODUCT_CATEGORY('TE402800','TE402800',(#436));
#433=APPLICATION_PROTOCOL_DEFINITION('international standard',
'automotive_design',2009,#434);
#434=APPLICATION_CONTEXT(
'Core Data for Automotive Mechanical Design Process');
#435=PRODUCT_CONTEXT('part definition',#434,'mechanical');
#436=PRODUCT('TE402800','TE402800',$,(#435));
#437=PRESENTATION_STYLE_ASSIGNMENT((#438));
#438=SURFACE_STYLE_USAGE(.BOTH.,#439);
#439=SURFACE_SIDE_STYLE('',(#440));
#440=SURFACE_STYLE_FILL_AREA(#441);
#441=FILL_AREA_STYLE('',(#442));
#442=FILL_AREA_STYLE_COLOUR('',#443);
#443=COLOUR_RGB('',0.92156862745098,0.92156862745098,0.92156862745098);
ENDSEC;
END-ISO-10303-21;
