ISO-10303-21;
HEADER;
/* Generated by software containing ST-Developer
 * from STEP Tools, Inc. (www.steptools.com) 
 */

FILE_DESCRIPTION(
/* description */ (''),
/* implementation_level */ '2;1');

FILE_NAME(
/* name */ 'C:\\Users\\Gabriele\\Desktop\\catalogo\\TR40\\TR40063E.stp',

/* time_stamp */ '2016-10-17T15:41:38+02:00',
/* author */ ('Gabriele'),
/* organization */ (''),
/* preprocessor_version */ 'ST-DEVELOPER v16.5',
/* originating_system */ 'Autodesk Inventor 2017',
/* authorisation */ '');

FILE_SCHEMA (('AUTOMOTIVE_DESIGN { 1 0 10303 214 3 1 1 }'));
ENDSEC;

DATA;
#10=MECHANICAL_DESIGN_GEOMETRIC_PRESENTATION_REPRESENTATION('',(#13),#481);
#11=SHAPE_REPRESENTATION_RELATIONSHIP('SRR','None',#490,#12);
#12=ADVANCED_BREP_SHAPE_REPRESENTATION('',(#14),#480);
#13=STYLED_ITEM('',(#499),#14);
#14=MANIFOLD_SOLID_BREP('Solido1',#200);
#15=B_SPLINE_CURVE_WITH_KNOTS('',3,(#333,#334,#335,#336,#337,#338,#339,
#340,#341,#342,#343,#344,#345,#346,#347,#348,#349,#350,#351,#352,#353,#354,
#355,#356,#357,#358,#359,#360,#361,#362,#363,#364,#365,#366,#367,#368,#369,
#370,#371,#372,#373,#374,#375,#376,#377,#378,#379,#380,#381,#382,#383,#384,
#385,#386,#387,#388,#389,#390,#391,#392,#393,#394,#395,#396,#397,#398),
 .UNSPECIFIED.,.T.,.F.,(4,2,2,2,2,2,2,2,2,2,2,2,2,2,2,2,2,2,2,2,2,2,2,2,
2,2,2,2,2,2,2,2,4),(0.,0.371753100949065,0.743506201898129,1.11525930284719,
1.48701240379626,1.85587572420053,2.22473904460479,2.59360236500906,2.96246568541333,
3.33132900581759,3.70019232622186,4.06905564662613,4.4379189670304,4.80967206797946,
5.18142516892853,5.55317826987759,5.92493137082665,6.29668447177572,6.66843757272478,
7.04019067367385,7.41194377462291,7.78080709502718,8.14967041543145,8.51853373583571,
8.88739705623998,9.25626037664425,9.62512369704852,9.99398701745278,10.362850337857,
10.7346034388061,11.1063565397552,11.4781096407042,11.8498627416533),
 .UNSPECIFIED.);
#16=B_SPLINE_CURVE_WITH_KNOTS('',3,(#409,#410,#411,#412,#413,#414,#415,
#416,#417,#418,#419,#420,#421,#422,#423,#424,#425,#426,#427,#428,#429,#430,
#431,#432,#433,#434,#435,#436,#437,#438,#439,#440,#441,#442,#443,#444,#445,
#446,#447,#448,#449,#450,#451,#452,#453,#454,#455,#456,#457,#458,#459,#460,
#461,#462,#463,#464,#465,#466,#467,#468,#469,#470,#471,#472,#473,#474),
 .UNSPECIFIED.,.T.,.F.,(4,2,2,2,2,2,2,2,2,2,2,2,2,2,2,2,2,2,2,2,2,2,2,2,
2,2,2,2,2,2,2,2,4),(0.,0.50444307990876,1.00888615981752,1.51332923972628,
2.01777231963504,2.51605470675284,3.01433709387063,3.51261948098843,4.01090186810623,
4.50918425522402,5.00746664234182,5.50574902945962,6.00403141657741,6.50847449648617,
7.01291757639493,7.51736065630369,8.02180373621245,8.52624681612122,9.03068989602998,
9.53513297593874,10.0395760558475,10.5378584429653,11.0361408300831,11.5344232172009,
12.0327056043187,12.5309879914365,13.0292703785543,13.5275527656721,14.0258351527899,
14.5302782326986,15.0347213126074,15.5391643925161,16.0436074724249),
 .UNSPECIFIED.);
#17=PLANE('',#207);
#18=PLANE('',#214);
#19=PLANE('',#221);
#20=PLANE('',#228);
#21=PLANE('',#231);
#22=PLANE('',#232);
#23=CYLINDRICAL_SURFACE('',#205,31.5);
#24=CYLINDRICAL_SURFACE('',#212,31.5);
#25=CYLINDRICAL_SURFACE('',#219,20.);
#26=CYLINDRICAL_SURFACE('',#223,19.);
#27=CYLINDRICAL_SURFACE('',#225,30.5);
#28=CYLINDRICAL_SURFACE('',#229,25.5);
#29=CYLINDRICAL_SURFACE('',#230,37.5);
#30=FACE_BOUND('',#65,.T.);
#31=FACE_BOUND('',#67,.T.);
#32=FACE_BOUND('',#69,.T.);
#33=FACE_BOUND('',#71,.T.);
#34=FACE_BOUND('',#73,.T.);
#35=FACE_BOUND('',#75,.T.);
#36=FACE_BOUND('',#77,.T.);
#37=FACE_BOUND('',#79,.T.);
#38=FACE_BOUND('',#81,.T.);
#39=FACE_BOUND('',#83,.T.);
#40=FACE_BOUND('',#85,.T.);
#41=FACE_BOUND('',#86,.T.);
#42=FACE_BOUND('',#88,.T.);
#43=FACE_BOUND('',#90,.T.);
#44=FACE_BOUND('',#92,.T.);
#45=FACE_BOUND('',#93,.T.);
#46=FACE_BOUND('',#95,.T.);
#47=FACE_BOUND('',#97,.T.);
#48=FACE_OUTER_BOUND('',#64,.T.);
#49=FACE_OUTER_BOUND('',#66,.T.);
#50=FACE_OUTER_BOUND('',#68,.T.);
#51=FACE_OUTER_BOUND('',#70,.T.);
#52=FACE_OUTER_BOUND('',#72,.T.);
#53=FACE_OUTER_BOUND('',#74,.T.);
#54=FACE_OUTER_BOUND('',#76,.T.);
#55=FACE_OUTER_BOUND('',#78,.T.);
#56=FACE_OUTER_BOUND('',#80,.T.);
#57=FACE_OUTER_BOUND('',#82,.T.);
#58=FACE_OUTER_BOUND('',#84,.T.);
#59=FACE_OUTER_BOUND('',#87,.T.);
#60=FACE_OUTER_BOUND('',#89,.T.);
#61=FACE_OUTER_BOUND('',#91,.T.);
#62=FACE_OUTER_BOUND('',#94,.T.);
#63=FACE_OUTER_BOUND('',#96,.T.);
#64=EDGE_LOOP('',(#147));
#65=EDGE_LOOP('',(#148));
#66=EDGE_LOOP('',(#149));
#67=EDGE_LOOP('',(#150));
#68=EDGE_LOOP('',(#151));
#69=EDGE_LOOP('',(#152));
#70=EDGE_LOOP('',(#153));
#71=EDGE_LOOP('',(#154));
#72=EDGE_LOOP('',(#155));
#73=EDGE_LOOP('',(#156));
#74=EDGE_LOOP('',(#157));
#75=EDGE_LOOP('',(#158));
#76=EDGE_LOOP('',(#159));
#77=EDGE_LOOP('',(#160));
#78=EDGE_LOOP('',(#161));
#79=EDGE_LOOP('',(#162));
#80=EDGE_LOOP('',(#163));
#81=EDGE_LOOP('',(#164));
#82=EDGE_LOOP('',(#165));
#83=EDGE_LOOP('',(#166));
#84=EDGE_LOOP('',(#167));
#85=EDGE_LOOP('',(#168));
#86=EDGE_LOOP('',(#169));
#87=EDGE_LOOP('',(#170));
#88=EDGE_LOOP('',(#171));
#89=EDGE_LOOP('',(#172));
#90=EDGE_LOOP('',(#173));
#91=EDGE_LOOP('',(#174));
#92=EDGE_LOOP('',(#175));
#93=EDGE_LOOP('',(#176));
#94=EDGE_LOOP('',(#177));
#95=EDGE_LOOP('',(#178));
#96=EDGE_LOOP('',(#179));
#97=EDGE_LOOP('',(#180));
#98=CIRCLE('',#203,31.5);
#99=CIRCLE('',#204,32.);
#100=CIRCLE('',#206,31.5);
#101=CIRCLE('',#208,37.5);
#102=CIRCLE('',#210,31.5);
#103=CIRCLE('',#211,32.);
#104=CIRCLE('',#213,31.5);
#105=CIRCLE('',#215,37.5);
#106=CIRCLE('',#217,20.);
#107=CIRCLE('',#218,20.5);
#108=CIRCLE('',#220,20.);
#109=CIRCLE('',#222,25.5);
#110=CIRCLE('',#224,19.);
#111=CIRCLE('',#226,30.5);
#112=CIRCLE('',#227,30.5);
#113=VERTEX_POINT('',#299);
#114=VERTEX_POINT('',#301);
#115=VERTEX_POINT('',#304);
#116=VERTEX_POINT('',#307);
#117=VERTEX_POINT('',#310);
#118=VERTEX_POINT('',#312);
#119=VERTEX_POINT('',#315);
#120=VERTEX_POINT('',#318);
#121=VERTEX_POINT('',#321);
#122=VERTEX_POINT('',#323);
#123=VERTEX_POINT('',#326);
#124=VERTEX_POINT('',#329);
#125=VERTEX_POINT('',#332);
#126=VERTEX_POINT('',#399);
#127=VERTEX_POINT('',#402);
#128=VERTEX_POINT('',#404);
#129=VERTEX_POINT('',#408);
#130=EDGE_CURVE('',#113,#113,#98,.T.);
#131=EDGE_CURVE('',#114,#114,#99,.T.);
#132=EDGE_CURVE('',#115,#115,#100,.T.);
#133=EDGE_CURVE('',#116,#116,#101,.T.);
#134=EDGE_CURVE('',#117,#117,#102,.T.);
#135=EDGE_CURVE('',#118,#118,#103,.T.);
#136=EDGE_CURVE('',#119,#119,#104,.T.);
#137=EDGE_CURVE('',#120,#120,#105,.T.);
#138=EDGE_CURVE('',#121,#121,#106,.T.);
#139=EDGE_CURVE('',#122,#122,#107,.T.);
#140=EDGE_CURVE('',#123,#123,#108,.T.);
#141=EDGE_CURVE('',#124,#124,#109,.T.);
#142=EDGE_CURVE('',#125,#125,#15,.T.);
#143=EDGE_CURVE('',#126,#126,#110,.T.);
#144=EDGE_CURVE('',#127,#127,#111,.T.);
#145=EDGE_CURVE('',#128,#128,#112,.T.);
#146=EDGE_CURVE('',#129,#129,#16,.T.);
#147=ORIENTED_EDGE('',*,*,#130,.T.);
#148=ORIENTED_EDGE('',*,*,#131,.T.);
#149=ORIENTED_EDGE('',*,*,#132,.T.);
#150=ORIENTED_EDGE('',*,*,#130,.F.);
#151=ORIENTED_EDGE('',*,*,#133,.T.);
#152=ORIENTED_EDGE('',*,*,#131,.F.);
#153=ORIENTED_EDGE('',*,*,#134,.T.);
#154=ORIENTED_EDGE('',*,*,#135,.T.);
#155=ORIENTED_EDGE('',*,*,#136,.F.);
#156=ORIENTED_EDGE('',*,*,#134,.F.);
#157=ORIENTED_EDGE('',*,*,#137,.T.);
#158=ORIENTED_EDGE('',*,*,#135,.F.);
#159=ORIENTED_EDGE('',*,*,#138,.T.);
#160=ORIENTED_EDGE('',*,*,#139,.T.);
#161=ORIENTED_EDGE('',*,*,#140,.T.);
#162=ORIENTED_EDGE('',*,*,#138,.F.);
#163=ORIENTED_EDGE('',*,*,#141,.F.);
#164=ORIENTED_EDGE('',*,*,#139,.F.);
#165=ORIENTED_EDGE('',*,*,#142,.F.);
#166=ORIENTED_EDGE('',*,*,#143,.F.);
#167=ORIENTED_EDGE('',*,*,#144,.F.);
#168=ORIENTED_EDGE('',*,*,#142,.T.);
#169=ORIENTED_EDGE('',*,*,#145,.F.);
#170=ORIENTED_EDGE('',*,*,#140,.F.);
#171=ORIENTED_EDGE('',*,*,#143,.T.);
#172=ORIENTED_EDGE('',*,*,#141,.T.);
#173=ORIENTED_EDGE('',*,*,#146,.F.);
#174=ORIENTED_EDGE('',*,*,#133,.F.);
#175=ORIENTED_EDGE('',*,*,#137,.F.);
#176=ORIENTED_EDGE('',*,*,#146,.T.);
#177=ORIENTED_EDGE('',*,*,#136,.T.);
#178=ORIENTED_EDGE('',*,*,#145,.T.);
#179=ORIENTED_EDGE('',*,*,#132,.F.);
#180=ORIENTED_EDGE('',*,*,#144,.T.);
#181=TOROIDAL_SURFACE('',#202,32.,0.5);
#182=TOROIDAL_SURFACE('',#209,32.,0.5);
#183=TOROIDAL_SURFACE('',#216,20.5,0.5);
#184=ADVANCED_FACE('',(#48,#30),#181,.T.);
#185=ADVANCED_FACE('',(#49,#31),#23,.F.);
#186=ADVANCED_FACE('',(#50,#32),#17,.T.);
#187=ADVANCED_FACE('',(#51,#33),#182,.T.);
#188=ADVANCED_FACE('',(#52,#34),#24,.F.);
#189=ADVANCED_FACE('',(#53,#35),#18,.F.);
#190=ADVANCED_FACE('',(#54,#36),#183,.T.);
#191=ADVANCED_FACE('',(#55,#37),#25,.F.);
#192=ADVANCED_FACE('',(#56,#38),#19,.T.);
#193=ADVANCED_FACE('',(#57,#39),#26,.F.);
#194=ADVANCED_FACE('',(#58,#40,#41),#27,.F.);
#195=ADVANCED_FACE('',(#59,#42),#20,.T.);
#196=ADVANCED_FACE('',(#60,#43),#28,.T.);
#197=ADVANCED_FACE('',(#61,#44,#45),#29,.T.);
#198=ADVANCED_FACE('',(#62,#46),#21,.F.);
#199=ADVANCED_FACE('',(#63,#47),#22,.T.);
#200=CLOSED_SHELL('',(#184,#185,#186,#187,#188,#189,#190,#191,#192,#193,
#194,#195,#196,#197,#198,#199));
#201=AXIS2_PLACEMENT_3D('placement',#297,#233,#234);
#202=AXIS2_PLACEMENT_3D('',#298,#235,#236);
#203=AXIS2_PLACEMENT_3D('',#300,#237,#238);
#204=AXIS2_PLACEMENT_3D('',#302,#239,#240);
#205=AXIS2_PLACEMENT_3D('',#303,#241,#242);
#206=AXIS2_PLACEMENT_3D('',#305,#243,#244);
#207=AXIS2_PLACEMENT_3D('',#306,#245,#246);
#208=AXIS2_PLACEMENT_3D('',#308,#247,#248);
#209=AXIS2_PLACEMENT_3D('',#309,#249,#250);
#210=AXIS2_PLACEMENT_3D('',#311,#251,#252);
#211=AXIS2_PLACEMENT_3D('',#313,#253,#254);
#212=AXIS2_PLACEMENT_3D('',#314,#255,#256);
#213=AXIS2_PLACEMENT_3D('',#316,#257,#258);
#214=AXIS2_PLACEMENT_3D('',#317,#259,#260);
#215=AXIS2_PLACEMENT_3D('',#319,#261,#262);
#216=AXIS2_PLACEMENT_3D('',#320,#263,#264);
#217=AXIS2_PLACEMENT_3D('',#322,#265,#266);
#218=AXIS2_PLACEMENT_3D('',#324,#267,#268);
#219=AXIS2_PLACEMENT_3D('',#325,#269,#270);
#220=AXIS2_PLACEMENT_3D('',#327,#271,#272);
#221=AXIS2_PLACEMENT_3D('',#328,#273,#274);
#222=AXIS2_PLACEMENT_3D('',#330,#275,#276);
#223=AXIS2_PLACEMENT_3D('',#331,#277,#278);
#224=AXIS2_PLACEMENT_3D('',#400,#279,#280);
#225=AXIS2_PLACEMENT_3D('',#401,#281,#282);
#226=AXIS2_PLACEMENT_3D('',#403,#283,#284);
#227=AXIS2_PLACEMENT_3D('',#405,#285,#286);
#228=AXIS2_PLACEMENT_3D('',#406,#287,#288);
#229=AXIS2_PLACEMENT_3D('',#407,#289,#290);
#230=AXIS2_PLACEMENT_3D('',#475,#291,#292);
#231=AXIS2_PLACEMENT_3D('',#476,#293,#294);
#232=AXIS2_PLACEMENT_3D('',#477,#295,#296);
#233=DIRECTION('axis',(0.,0.,1.));
#234=DIRECTION('refdir',(1.,0.,0.));
#235=DIRECTION('center_axis',(0.,0.,-1.));
#236=DIRECTION('ref_axis',(-1.,0.,0.));
#237=DIRECTION('center_axis',(0.,0.,-1.));
#238=DIRECTION('ref_axis',(-1.,0.,0.));
#239=DIRECTION('center_axis',(0.,0.,1.));
#240=DIRECTION('ref_axis',(-1.,0.,0.));
#241=DIRECTION('center_axis',(0.,0.,-1.));
#242=DIRECTION('ref_axis',(-1.,0.,0.));
#243=DIRECTION('center_axis',(0.,0.,-1.));
#244=DIRECTION('ref_axis',(-1.,0.,0.));
#245=DIRECTION('center_axis',(0.,0.,1.));
#246=DIRECTION('ref_axis',(1.,0.,0.));
#247=DIRECTION('center_axis',(0.,0.,1.));
#248=DIRECTION('ref_axis',(-1.,0.,0.));
#249=DIRECTION('center_axis',(0.,0.,1.));
#250=DIRECTION('ref_axis',(1.,0.,0.));
#251=DIRECTION('center_axis',(0.,0.,1.));
#252=DIRECTION('ref_axis',(-1.,0.,0.));
#253=DIRECTION('center_axis',(0.,0.,-1.));
#254=DIRECTION('ref_axis',(-1.,0.,0.));
#255=DIRECTION('center_axis',(0.,0.,-1.));
#256=DIRECTION('ref_axis',(-1.,0.,0.));
#257=DIRECTION('center_axis',(0.,0.,-1.));
#258=DIRECTION('ref_axis',(-1.,0.,0.));
#259=DIRECTION('center_axis',(0.,0.,1.));
#260=DIRECTION('ref_axis',(1.,0.,0.));
#261=DIRECTION('center_axis',(0.,0.,-1.));
#262=DIRECTION('ref_axis',(-1.,0.,0.));
#263=DIRECTION('center_axis',(0.,-1.,0.));
#264=DIRECTION('ref_axis',(0.,0.,-1.));
#265=DIRECTION('center_axis',(0.,-1.,0.));
#266=DIRECTION('ref_axis',(-1.,0.,0.));
#267=DIRECTION('center_axis',(0.,1.,0.));
#268=DIRECTION('ref_axis',(-1.,0.,0.));
#269=DIRECTION('center_axis',(0.,-1.,0.));
#270=DIRECTION('ref_axis',(-1.,0.,0.));
#271=DIRECTION('center_axis',(0.,-1.,0.));
#272=DIRECTION('ref_axis',(-1.,0.,0.));
#273=DIRECTION('center_axis',(0.,1.,0.));
#274=DIRECTION('ref_axis',(0.,0.,1.));
#275=DIRECTION('center_axis',(0.,-1.,0.));
#276=DIRECTION('ref_axis',(1.,0.,0.));
#277=DIRECTION('center_axis',(0.,-1.,0.));
#278=DIRECTION('ref_axis',(-1.,0.,0.));
#279=DIRECTION('center_axis',(0.,-1.,0.));
#280=DIRECTION('ref_axis',(-1.,0.,0.));
#281=DIRECTION('center_axis',(0.,0.,1.));
#282=DIRECTION('ref_axis',(1.,0.,0.));
#283=DIRECTION('center_axis',(0.,0.,-1.));
#284=DIRECTION('ref_axis',(1.,0.,0.));
#285=DIRECTION('center_axis',(0.,0.,1.));
#286=DIRECTION('ref_axis',(1.,0.,0.));
#287=DIRECTION('center_axis',(0.,1.,0.));
#288=DIRECTION('ref_axis',(0.,0.,1.));
#289=DIRECTION('center_axis',(0.,-1.,0.));
#290=DIRECTION('ref_axis',(1.,0.,0.));
#291=DIRECTION('center_axis',(0.,0.,1.));
#292=DIRECTION('ref_axis',(-1.,0.,0.));
#293=DIRECTION('center_axis',(0.,0.,1.));
#294=DIRECTION('ref_axis',(1.,0.,0.));
#295=DIRECTION('center_axis',(0.,0.,1.));
#296=DIRECTION('ref_axis',(1.,0.,0.));
#297=CARTESIAN_POINT('',(0.,0.,0.));
#298=CARTESIAN_POINT('Origin',(0.,0.,70.5));
#299=CARTESIAN_POINT('',(31.5,-3.85763741731416E-15,70.5));
#300=CARTESIAN_POINT('Origin',(0.,0.,70.5));
#301=CARTESIAN_POINT('',(32.,3.91886975727153E-15,71.));
#302=CARTESIAN_POINT('Origin',(0.,0.,71.));
#303=CARTESIAN_POINT('Origin',(0.,0.,71.));
#304=CARTESIAN_POINT('',(31.5,3.85763741731416E-15,33.));
#305=CARTESIAN_POINT('Origin',(0.,0.,33.));
#306=CARTESIAN_POINT('Origin',(-3.54066983922288E-15,-7.89491928622334E-16,
71.));
#307=CARTESIAN_POINT('',(37.5,4.59242549680258E-15,71.));
#308=CARTESIAN_POINT('Origin',(0.,0.,71.));
#309=CARTESIAN_POINT('Origin',(0.,0.,-70.5));
#310=CARTESIAN_POINT('',(31.5,3.85763741731416E-15,-70.5));
#311=CARTESIAN_POINT('Origin',(0.,0.,-70.5));
#312=CARTESIAN_POINT('',(32.,-3.91886975727153E-15,-71.));
#313=CARTESIAN_POINT('Origin',(0.,0.,-71.));
#314=CARTESIAN_POINT('Origin',(0.,0.,-71.));
#315=CARTESIAN_POINT('',(31.5,3.85763741731416E-15,-33.));
#316=CARTESIAN_POINT('Origin',(0.,0.,-33.));
#317=CARTESIAN_POINT('Origin',(-3.54066983922288E-15,-7.89491928622334E-16,
-71.));
#318=CARTESIAN_POINT('',(37.5,4.59242549680258E-15,-71.));
#319=CARTESIAN_POINT('Origin',(0.,0.,-71.));
#320=CARTESIAN_POINT('Origin',(0.,58.5,0.));
#321=CARTESIAN_POINT('',(20.,58.5,2.44929359829471E-15));
#322=CARTESIAN_POINT('Origin',(0.,58.5,0.));
#323=CARTESIAN_POINT('',(20.5,59.,-2.51052593825207E-15));
#324=CARTESIAN_POINT('Origin',(0.,59.,0.));
#325=CARTESIAN_POINT('Origin',(0.,59.,0.));
#326=CARTESIAN_POINT('',(20.,33.,-2.44929359829471E-15));
#327=CARTESIAN_POINT('Origin',(0.,33.,0.));
#328=CARTESIAN_POINT('Origin',(1.42125498691048E-15,59.,0.));
#329=CARTESIAN_POINT('',(-25.5,59.,3.12284933782575E-15));
#330=CARTESIAN_POINT('Origin',(0.,59.,0.));
#331=CARTESIAN_POINT('Origin',(0.,33.,0.));
#332=CARTESIAN_POINT('',(19.,23.8589605808803,4.16333634234434E-15));
#333=CARTESIAN_POINT('Ctrl Pts',(19.,23.8589605808803,4.16333634234434E-15));
#334=CARTESIAN_POINT('Ctrl Pts',(19.,23.8589605808803,-1.23917700316354));
#335=CARTESIAN_POINT('Ctrl Pts',(18.8770129598958,23.9584599806576,-2.50265113252386));
#336=CARTESIAN_POINT('Ctrl Pts',(18.3776593095672,24.3436040963041,-4.98663415346378));
#337=CARTESIAN_POINT('Ctrl Pts',(18.0015688168561,24.6282329868249,-6.20735594145707));
#338=CARTESIAN_POINT('Ctrl Pts',(17.0241718886169,25.3137081852858,-8.53026557746302));
#339=CARTESIAN_POINT('Ctrl Pts',(16.4220596674545,25.7141033352271,-9.63489598027069));
#340=CARTESIAN_POINT('Ctrl Pts',(15.0415541719031,26.5452595021419,-11.6733419611402));
#341=CARTESIAN_POINT('Ctrl Pts',(14.2628507997531,26.9753842885753,-12.6072068853358));
#342=CARTESIAN_POINT('Ctrl Pts',(12.6136418653814,27.7845846065859,-14.2564158197075));
#343=CARTESIAN_POINT('Ctrl Pts',(11.6831485990086,28.1946519118049,-15.0340166960687));
#344=CARTESIAN_POINT('Ctrl Pts',(9.64394786126057,28.9556320470205,-16.4168172606704));
#345=CARTESIAN_POINT('Ctrl Pts',(8.53512752489018,29.3060710722735,-17.0221112069631));
#346=CARTESIAN_POINT('Ctrl Pts',(6.20283021175694,29.8867714152503,-18.0034880277798));
#347=CARTESIAN_POINT('Ctrl Pts',(4.97694222744535,30.1172603833334,-18.380368477246));
#348=CARTESIAN_POINT('Ctrl Pts',(2.49032994244134,30.4239639711578,-18.8787223106522));
#349=CARTESIAN_POINT('Ctrl Pts',(1.22954440134756,30.5,-19.));
#350=CARTESIAN_POINT('Ctrl Pts',(-1.22954440134755,30.5,-19.));
#351=CARTESIAN_POINT('Ctrl Pts',(-2.49032994244133,30.4239639711578,-18.8787223106522));
#352=CARTESIAN_POINT('Ctrl Pts',(-4.97694222744534,30.1172603833334,-18.380368477246));
#353=CARTESIAN_POINT('Ctrl Pts',(-6.20283021175693,29.8867714152503,-18.0034880277798));
#354=CARTESIAN_POINT('Ctrl Pts',(-8.53512752489018,29.3060710722735,-17.0221112069631));
#355=CARTESIAN_POINT('Ctrl Pts',(-9.64394786126057,28.9556320470205,-16.4168172606704));
#356=CARTESIAN_POINT('Ctrl Pts',(-11.6831485990086,28.1946519118049,-15.0340166960687));
#357=CARTESIAN_POINT('Ctrl Pts',(-12.6136418653814,27.7845846065859,-14.2564158197075));
#358=CARTESIAN_POINT('Ctrl Pts',(-14.262850799753,26.9753842885753,-12.6072068853358));
#359=CARTESIAN_POINT('Ctrl Pts',(-15.0415541719031,26.5452595021419,-11.6733419611402));
#360=CARTESIAN_POINT('Ctrl Pts',(-16.4220596674545,25.7141033352271,-9.63489598027069));
#361=CARTESIAN_POINT('Ctrl Pts',(-17.0241718886169,25.3137081852858,-8.53026557746301));
#362=CARTESIAN_POINT('Ctrl Pts',(-18.0015688168561,24.6282329868249,-6.20735594145707));
#363=CARTESIAN_POINT('Ctrl Pts',(-18.3776593095672,24.3436040963041,-4.98663415346378));
#364=CARTESIAN_POINT('Ctrl Pts',(-18.8770129598958,23.9584599806576,-2.50265113252386));
#365=CARTESIAN_POINT('Ctrl Pts',(-19.,23.8589605808803,-1.23917700316355));
#366=CARTESIAN_POINT('Ctrl Pts',(-19.,23.8589605808803,1.23917700316355));
#367=CARTESIAN_POINT('Ctrl Pts',(-18.8770129598958,23.9584599806576,2.50265113252386));
#368=CARTESIAN_POINT('Ctrl Pts',(-18.3776593095672,24.343604096304,4.98663415346378));
#369=CARTESIAN_POINT('Ctrl Pts',(-18.0015688168561,24.6282329868249,6.20735594145707));
#370=CARTESIAN_POINT('Ctrl Pts',(-17.0241718886169,25.3137081852858,8.53026557746301));
#371=CARTESIAN_POINT('Ctrl Pts',(-16.4220596674545,25.7141033352271,9.63489598027068));
#372=CARTESIAN_POINT('Ctrl Pts',(-15.0415541719031,26.5452595021419,11.6733419611402));
#373=CARTESIAN_POINT('Ctrl Pts',(-14.2628507997531,26.9753842885753,12.6072068853357));
#374=CARTESIAN_POINT('Ctrl Pts',(-12.6136418653814,27.7845846065859,14.2564158197074));
#375=CARTESIAN_POINT('Ctrl Pts',(-11.6831485990086,28.1946519118049,15.0340166960687));
#376=CARTESIAN_POINT('Ctrl Pts',(-9.64394786126059,28.9556320470205,16.4168172606704));
#377=CARTESIAN_POINT('Ctrl Pts',(-8.53512752489019,29.3060710722735,17.0221112069631));
#378=CARTESIAN_POINT('Ctrl Pts',(-6.20283021175695,29.8867714152503,18.0034880277798));
#379=CARTESIAN_POINT('Ctrl Pts',(-4.97694222744536,30.1172603833334,18.380368477246));
#380=CARTESIAN_POINT('Ctrl Pts',(-2.49032994244134,30.4239639711578,18.8787223106522));
#381=CARTESIAN_POINT('Ctrl Pts',(-1.22954440134756,30.5,19.));
#382=CARTESIAN_POINT('Ctrl Pts',(1.22954440134755,30.5,19.));
#383=CARTESIAN_POINT('Ctrl Pts',(2.49032994244133,30.4239639711578,18.8787223106522));
#384=CARTESIAN_POINT('Ctrl Pts',(4.97694222744535,30.1172603833334,18.380368477246));
#385=CARTESIAN_POINT('Ctrl Pts',(6.20283021175693,29.8867714152503,18.0034880277798));
#386=CARTESIAN_POINT('Ctrl Pts',(8.53512752489016,29.3060710722735,17.0221112069632));
#387=CARTESIAN_POINT('Ctrl Pts',(9.64394786126056,28.9556320470205,16.4168172606704));
#388=CARTESIAN_POINT('Ctrl Pts',(11.6831485990086,28.1946519118049,15.0340166960687));
#389=CARTESIAN_POINT('Ctrl Pts',(12.6136418653813,27.7845846065859,14.2564158197075));
#390=CARTESIAN_POINT('Ctrl Pts',(14.262850799753,26.9753842885753,12.6072068853358));
#391=CARTESIAN_POINT('Ctrl Pts',(15.0415541719031,26.5452595021419,11.6733419611403));
#392=CARTESIAN_POINT('Ctrl Pts',(16.4220596674545,25.7141033352271,9.6348959802707));
#393=CARTESIAN_POINT('Ctrl Pts',(17.0241718886169,25.3137081852858,8.53026557746303));
#394=CARTESIAN_POINT('Ctrl Pts',(18.0015688168561,24.628232986825,6.20735594145709));
#395=CARTESIAN_POINT('Ctrl Pts',(18.3776593095672,24.3436040963041,4.9866341534638));
#396=CARTESIAN_POINT('Ctrl Pts',(18.8770129598958,23.9584599806576,2.50265113252388));
#397=CARTESIAN_POINT('Ctrl Pts',(19.,23.8589605808803,1.23917700316356));
#398=CARTESIAN_POINT('Ctrl Pts',(19.,23.8589605808803,5.82867087928207E-15));
#399=CARTESIAN_POINT('',(19.,33.,-2.32682891837997E-15));
#400=CARTESIAN_POINT('Origin',(0.,33.,0.));
#401=CARTESIAN_POINT('Origin',(0.,0.,-33.));
#402=CARTESIAN_POINT('',(-30.5,3.73517273739943E-15,33.));
#403=CARTESIAN_POINT('Origin',(0.,0.,33.));
#404=CARTESIAN_POINT('',(-30.5,3.73517273739943E-15,-33.));
#405=CARTESIAN_POINT('Origin',(0.,0.,-33.));
#406=CARTESIAN_POINT('Origin',(-9.4425648294133E-16,33.,0.));
#407=CARTESIAN_POINT('Origin',(0.,59.,0.));
#408=CARTESIAN_POINT('',(25.5,27.495454169735,-5.55111512312578E-16));
#409=CARTESIAN_POINT('Ctrl Pts',(25.5,27.495454169735,-5.55111512312578E-16));
#410=CARTESIAN_POINT('Ctrl Pts',(25.5,27.495454169735,1.6814769330292));
#411=CARTESIAN_POINT('Ctrl Pts',(25.3314908342919,27.6544948615432,3.38671129913955));
#412=CARTESIAN_POINT('Ctrl Pts',(24.6555585141033,28.2587852912176,6.72738270087392));
#413=CARTESIAN_POINT('Ctrl Pts',(24.1485489487679,28.702028322897,8.36326608160275));
#414=CARTESIAN_POINT('Ctrl Pts',(22.8361338687527,29.7568425227319,11.4720453739926));
#415=CARTESIAN_POINT('Ctrl Pts',(22.0296030632059,30.3676815942291,12.9482473813983));
#416=CARTESIAN_POINT('Ctrl Pts',(20.1816830986768,31.6259255000483,15.6735506152274));
#417=CARTESIAN_POINT('Ctrl Pts',(19.1397804506771,32.2725466794602,16.9226653898369));
#418=CARTESIAN_POINT('Ctrl Pts',(16.9362040479294,33.4809595454831,19.1262417925845));
#419=CARTESIAN_POINT('Ctrl Pts',(15.6944344170478,34.0897405124299,20.1655751899631));
#420=CARTESIAN_POINT('Ctrl Pts',(12.9683287533478,35.2171567448981,22.017905077054));
#421=CARTESIAN_POINT('Ctrl Pts',(11.4838105586183,35.7351757017842,22.8310085334726));
#422=CARTESIAN_POINT('Ctrl Pts',(8.35547782944886,36.5932601741223,24.1519951620677));
#423=CARTESIAN_POINT('Ctrl Pts',(6.70830116201852,36.9337391248331,24.6609668783141));
#424=CARTESIAN_POINT('Ctrl Pts',(3.36107843609967,37.3872376886413,25.3351089127818));
#425=CARTESIAN_POINT('Ctrl Pts',(1.66094129039266,37.5,25.5));
#426=CARTESIAN_POINT('Ctrl Pts',(-1.66094129039265,37.5,25.5));
#427=CARTESIAN_POINT('Ctrl Pts',(-3.36107843609966,37.3872376886413,25.3351089127818));
#428=CARTESIAN_POINT('Ctrl Pts',(-6.70830116201852,36.9337391248331,24.6609668783141));
#429=CARTESIAN_POINT('Ctrl Pts',(-8.35547782944887,36.5932601741223,24.1519951620677));
#430=CARTESIAN_POINT('Ctrl Pts',(-11.4838105586183,35.7351757017842,22.8310085334726));
#431=CARTESIAN_POINT('Ctrl Pts',(-12.9683287533478,35.2171567448981,22.017905077054));
#432=CARTESIAN_POINT('Ctrl Pts',(-15.6944344170478,34.0897405124299,20.1655751899631));
#433=CARTESIAN_POINT('Ctrl Pts',(-16.9362040479294,33.4809595454831,19.1262417925845));
#434=CARTESIAN_POINT('Ctrl Pts',(-19.1397804506771,32.2725466794602,16.9226653898369));
#435=CARTESIAN_POINT('Ctrl Pts',(-20.1816830986768,31.6259255000483,15.6735506152274));
#436=CARTESIAN_POINT('Ctrl Pts',(-22.0296030632059,30.3676815942291,12.9482473813983));
#437=CARTESIAN_POINT('Ctrl Pts',(-22.8361338687527,29.7568425227319,11.4720453739926));
#438=CARTESIAN_POINT('Ctrl Pts',(-24.1485489487679,28.702028322897,8.36326608160275));
#439=CARTESIAN_POINT('Ctrl Pts',(-24.6555585141033,28.2587852912176,6.72738270087392));
#440=CARTESIAN_POINT('Ctrl Pts',(-25.3314908342919,27.6544948615432,3.38671129913955));
#441=CARTESIAN_POINT('Ctrl Pts',(-25.5,27.495454169735,1.6814769330292));
#442=CARTESIAN_POINT('Ctrl Pts',(-25.5,27.495454169735,-1.6814769330292));
#443=CARTESIAN_POINT('Ctrl Pts',(-25.3314908342919,27.6544948615432,-3.38671129913955));
#444=CARTESIAN_POINT('Ctrl Pts',(-24.6555585141033,28.2587852912176,-6.72738270087392));
#445=CARTESIAN_POINT('Ctrl Pts',(-24.1485489487679,28.702028322897,-8.36326608160276));
#446=CARTESIAN_POINT('Ctrl Pts',(-22.8361338687527,29.7568425227319,-11.4720453739926));
#447=CARTESIAN_POINT('Ctrl Pts',(-22.0296030632059,30.3676815942291,-12.9482473813984));
#448=CARTESIAN_POINT('Ctrl Pts',(-20.1816830986768,31.6259255000483,-15.6735506152274));
#449=CARTESIAN_POINT('Ctrl Pts',(-19.1397804506771,32.2725466794602,-16.9226653898369));
#450=CARTESIAN_POINT('Ctrl Pts',(-16.9362040479294,33.4809595454831,-19.1262417925845));
#451=CARTESIAN_POINT('Ctrl Pts',(-15.6944344170478,34.0897405124299,-20.1655751899631));
#452=CARTESIAN_POINT('Ctrl Pts',(-12.9683287533478,35.2171567448981,-22.017905077054));
#453=CARTESIAN_POINT('Ctrl Pts',(-11.4838105586183,35.7351757017842,-22.8310085334726));
#454=CARTESIAN_POINT('Ctrl Pts',(-8.35547782944887,36.5932601741223,-24.1519951620677));
#455=CARTESIAN_POINT('Ctrl Pts',(-6.70830116201852,36.9337391248331,-24.6609668783141));
#456=CARTESIAN_POINT('Ctrl Pts',(-3.36107843609967,37.3872376886413,-25.3351089127818));
#457=CARTESIAN_POINT('Ctrl Pts',(-1.66094129039266,37.5,-25.5));
#458=CARTESIAN_POINT('Ctrl Pts',(1.66094129039265,37.5,-25.5));
#459=CARTESIAN_POINT('Ctrl Pts',(3.36107843609966,37.3872376886413,-25.3351089127818));
#460=CARTESIAN_POINT('Ctrl Pts',(6.7083011620185,36.9337391248331,-24.6609668783141));
#461=CARTESIAN_POINT('Ctrl Pts',(8.35547782944885,36.5932601741223,-24.1519951620677));
#462=CARTESIAN_POINT('Ctrl Pts',(11.4838105586183,35.7351757017842,-22.8310085334726));
#463=CARTESIAN_POINT('Ctrl Pts',(12.9683287533478,35.2171567448981,-22.017905077054));
#464=CARTESIAN_POINT('Ctrl Pts',(15.6944344170478,34.0897405124299,-20.1655751899631));
#465=CARTESIAN_POINT('Ctrl Pts',(16.9362040479294,33.4809595454831,-19.1262417925845));
#466=CARTESIAN_POINT('Ctrl Pts',(19.1397804506771,32.2725466794602,-16.9226653898369));
#467=CARTESIAN_POINT('Ctrl Pts',(20.1816830986768,31.6259255000483,-15.6735506152274));
#468=CARTESIAN_POINT('Ctrl Pts',(22.0296030632059,30.3676815942291,-12.9482473813983));
#469=CARTESIAN_POINT('Ctrl Pts',(22.8361338687527,29.7568425227319,-11.4720453739926));
#470=CARTESIAN_POINT('Ctrl Pts',(24.1485489487679,28.702028322897,-8.36326608160275));
#471=CARTESIAN_POINT('Ctrl Pts',(24.6555585141033,28.2587852912176,-6.72738270087391));
#472=CARTESIAN_POINT('Ctrl Pts',(25.3314908342919,27.6544948615432,-3.38671129913955));
#473=CARTESIAN_POINT('Ctrl Pts',(25.5,27.495454169735,-1.6814769330292));
#474=CARTESIAN_POINT('Ctrl Pts',(25.5,27.495454169735,0.));
#475=CARTESIAN_POINT('Origin',(0.,0.,0.));
#476=CARTESIAN_POINT('Origin',(-3.14108381557023E-15,-4.69935671799008E-16,
-33.));
#477=CARTESIAN_POINT('Origin',(-3.14108381557023E-15,-4.69935671799008E-16,
33.));
#478=UNCERTAINTY_MEASURE_WITH_UNIT(LENGTH_MEASURE(0.01),#482,
'DISTANCE_ACCURACY_VALUE',
'Maximum model space distance between geometric entities at asserted c
onnectivities');
#479=UNCERTAINTY_MEASURE_WITH_UNIT(LENGTH_MEASURE(1.E-6),#482,
'DISTANCE_ACCURACY_VALUE',
'Maximum model space distance between geometric entities at asserted c
onnectivities');
#480=(
GEOMETRIC_REPRESENTATION_CONTEXT(3)
GLOBAL_UNCERTAINTY_ASSIGNED_CONTEXT((#478))
GLOBAL_UNIT_ASSIGNED_CONTEXT((#482,#485,#483))
REPRESENTATION_CONTEXT('','3D')
);
#481=(
GEOMETRIC_REPRESENTATION_CONTEXT(3)
GLOBAL_UNCERTAINTY_ASSIGNED_CONTEXT((#479))
GLOBAL_UNIT_ASSIGNED_CONTEXT((#482,#485,#483))
REPRESENTATION_CONTEXT('','3D')
);
#482=(
LENGTH_UNIT()
NAMED_UNIT(*)
SI_UNIT(.MILLI.,.METRE.)
);
#483=(
NAMED_UNIT(*)
SI_UNIT($,.STERADIAN.)
SOLID_ANGLE_UNIT()
);
#484=DIMENSIONAL_EXPONENTS(0.,0.,0.,0.,0.,0.,0.);
#485=(
CONVERSION_BASED_UNIT('degree',#487)
NAMED_UNIT(#484)
PLANE_ANGLE_UNIT()
);
#486=(
NAMED_UNIT(*)
PLANE_ANGLE_UNIT()
SI_UNIT($,.RADIAN.)
);
#487=PLANE_ANGLE_MEASURE_WITH_UNIT(PLANE_ANGLE_MEASURE(0.01745329252),#486);
#488=SHAPE_DEFINITION_REPRESENTATION(#489,#490);
#489=PRODUCT_DEFINITION_SHAPE('',$,#492);
#490=SHAPE_REPRESENTATION('',(#201),#480);
#491=PRODUCT_DEFINITION_CONTEXT('part definition',#496,'design');
#492=PRODUCT_DEFINITION('TR40063E','TR40063E',#493,#491);
#493=PRODUCT_DEFINITION_FORMATION('',$,#498);
#494=PRODUCT_RELATED_PRODUCT_CATEGORY('TR40063E','TR40063E',(#498));
#495=APPLICATION_PROTOCOL_DEFINITION('international standard',
'automotive_design',2009,#496);
#496=APPLICATION_CONTEXT(
'Core Data for Automotive Mechanical Design Process');
#497=PRODUCT_CONTEXT('part definition',#496,'mechanical');
#498=PRODUCT('TR40063E','TR40063E',$,(#497));
#499=PRESENTATION_STYLE_ASSIGNMENT((#500));
#500=SURFACE_STYLE_USAGE(.BOTH.,#501);
#501=SURFACE_SIDE_STYLE('',(#502));
#502=SURFACE_STYLE_FILL_AREA(#503);
#503=FILL_AREA_STYLE('',(#504));
#504=FILL_AREA_STYLE_COLOUR('',#505);
#505=COLOUR_RGB('',0.8,0.8,0.8);
ENDSEC;
END-ISO-10303-21;
