ISO-10303-21;
HEADER;
/* Generated by software containing ST-Developer
 * from STEP Tools, Inc. (www.steptools.com) 
 */

FILE_DESCRIPTION(
/* description */ (
'PE100 45° Wye with long spigot ends, Ø315, SDR17 PN10'),
/* implementation_level */ '2;1');

FILE_NAME(
/* name */ 
'YDE17-315',
/* time_stamp */ '2022-07-06T16:25:28+02:00',
/* author */ ('COAB Solutions'),
/* organization */ ('GPA Flowsystem'),
/* preprocessor_version */ 'ST-DEVELOPER v18.1',
/* originating_system */ 'www.coabsolutions.com',
/* authorisation */ '');

FILE_SCHEMA (('AUTOMOTIVE_DESIGN { 1 0 10303 214 3 1 1 }'));
ENDSEC;

DATA;
#10=MECHANICAL_DESIGN_GEOMETRIC_PRESENTATION_REPRESENTATION('',(#13),#480);
#11=SHAPE_REPRESENTATION_RELATIONSHIP('SRR','None',#487,#12);
#12=ADVANCED_BREP_SHAPE_REPRESENTATION('',(#14),#479);
#13=STYLED_ITEM('',(#496),#14);
#14=MANIFOLD_SOLID_BREP('Solid2',#255);
#15=PLANE('',#308);
#16=PLANE('',#309);
#17=PLANE('',#312);
#18=FACE_BOUND('',#56,.T.);
#19=FACE_BOUND('',#60,.T.);
#20=FACE_BOUND('',#62,.T.);
#21=FACE_BOUND('',#65,.T.);
#22=ELLIPSE('',#281,187.524448700657,173.25);
#23=ELLIPSE('',#282,452.724067329666,173.25);
#24=ELLIPSE('',#283,452.724067329666,173.25);
#25=ELLIPSE('',#284,187.524448700657,173.25);
#26=ELLIPSE('',#298,150.236037400584,138.8);
#27=ELLIPSE('',#299,362.701879049682,138.8);
#28=ELLIPSE('',#300,150.236037400584,138.8);
#29=CYLINDRICAL_SURFACE('',#280,173.25);
#30=CYLINDRICAL_SURFACE('',#290,173.25);
#31=CYLINDRICAL_SURFACE('',#296,138.8);
#32=CYLINDRICAL_SURFACE('',#301,138.8);
#33=CYLINDRICAL_SURFACE('',#304,157.5);
#34=CYLINDRICAL_SURFACE('',#306,157.5);
#35=CYLINDRICAL_SURFACE('',#310,157.5);
#36=FACE_OUTER_BOUND('',#49,.T.);
#37=FACE_OUTER_BOUND('',#50,.T.);
#38=FACE_OUTER_BOUND('',#51,.T.);
#39=FACE_OUTER_BOUND('',#52,.T.);
#40=FACE_OUTER_BOUND('',#53,.T.);
#41=FACE_OUTER_BOUND('',#54,.T.);
#42=FACE_OUTER_BOUND('',#55,.T.);
#43=FACE_OUTER_BOUND('',#57,.T.);
#44=FACE_OUTER_BOUND('',#58,.T.);
#45=FACE_OUTER_BOUND('',#59,.T.);
#46=FACE_OUTER_BOUND('',#61,.T.);
#47=FACE_OUTER_BOUND('',#63,.T.);
#48=FACE_OUTER_BOUND('',#64,.T.);
#49=EDGE_LOOP('',(#167,#168,#169,#170,#171,#172));
#50=EDGE_LOOP('',(#173,#174,#175,#176,#177,#178,#179,#180));
#51=EDGE_LOOP('',(#181,#182,#183,#184,#185,#186));
#52=EDGE_LOOP('',(#187,#188,#189,#190,#191,#192,#193,#194,#195,#196,#197,
#198));
#53=EDGE_LOOP('',(#199,#200,#201,#202,#203,#204));
#54=EDGE_LOOP('',(#205,#206,#207,#208,#209,#210));
#55=EDGE_LOOP('',(#211,#212,#213,#214));
#56=EDGE_LOOP('',(#215,#216,#217));
#57=EDGE_LOOP('',(#218,#219,#220,#221,#222));
#58=EDGE_LOOP('',(#223,#224,#225,#226,#227));
#59=EDGE_LOOP('',(#228));
#60=EDGE_LOOP('',(#229));
#61=EDGE_LOOP('',(#230));
#62=EDGE_LOOP('',(#231));
#63=EDGE_LOOP('',(#232,#233,#234,#235,#236));
#64=EDGE_LOOP('',(#237));
#65=EDGE_LOOP('',(#238));
#66=LINE('',#408,#77);
#67=LINE('',#417,#78);
#68=LINE('',#428,#79);
#69=LINE('',#434,#80);
#70=LINE('',#436,#81);
#71=LINE('',#442,#82);
#72=LINE('',#450,#83);
#73=LINE('',#460,#84);
#74=LINE('',#464,#85);
#75=LINE('',#468,#86);
#76=LINE('',#475,#87);
#77=VECTOR('',#319,165.375);
#78=VECTOR('',#330,173.25);
#79=VECTOR('',#341,165.375000000001);
#80=VECTOR('',#350,173.25);
#81=VECTOR('',#351,173.25);
#82=VECTOR('',#358,165.375);
#83=VECTOR('',#367,138.8);
#84=VECTOR('',#378,138.8);
#85=VECTOR('',#383,157.5);
#86=VECTOR('',#388,157.5);
#87=VECTOR('',#399,157.5);
#88=CIRCLE('',#276,157.5);
#89=CIRCLE('',#277,173.25);
#90=CIRCLE('',#278,173.25);
#91=CIRCLE('',#279,157.5);
#92=CIRCLE('',#286,157.5);
#93=CIRCLE('',#287,173.25);
#94=CIRCLE('',#288,173.25);
#95=CIRCLE('',#289,157.5);
#96=CIRCLE('',#291,173.25);
#97=CIRCLE('',#292,173.25);
#98=CIRCLE('',#294,157.5);
#99=CIRCLE('',#295,157.5);
#100=CIRCLE('',#297,138.8);
#101=CIRCLE('',#302,138.8);
#102=CIRCLE('',#303,138.8);
#103=CIRCLE('',#305,157.5);
#104=CIRCLE('',#307,157.5);
#105=CIRCLE('',#311,157.5);
#106=VERTEX_POINT('',#404);
#107=VERTEX_POINT('',#405);
#108=VERTEX_POINT('',#407);
#109=VERTEX_POINT('',#409);
#110=VERTEX_POINT('',#414);
#111=VERTEX_POINT('',#415);
#112=VERTEX_POINT('',#418);
#113=VERTEX_POINT('',#420);
#114=VERTEX_POINT('',#424);
#115=VERTEX_POINT('',#425);
#116=VERTEX_POINT('',#427);
#117=VERTEX_POINT('',#429);
#118=VERTEX_POINT('',#435);
#119=VERTEX_POINT('',#437);
#120=VERTEX_POINT('',#441);
#121=VERTEX_POINT('',#443);
#122=VERTEX_POINT('',#447);
#123=VERTEX_POINT('',#449);
#124=VERTEX_POINT('',#451);
#125=VERTEX_POINT('',#453);
#126=VERTEX_POINT('',#457);
#127=VERTEX_POINT('',#459);
#128=VERTEX_POINT('',#463);
#129=VERTEX_POINT('',#467);
#130=VERTEX_POINT('',#473);
#131=EDGE_CURVE('',#106,#107,#88,.T.);
#132=EDGE_CURVE('',#107,#108,#66,.T.);
#133=EDGE_CURVE('',#108,#109,#89,.T.);
#134=EDGE_CURVE('',#109,#108,#90,.T.);
#135=EDGE_CURVE('',#107,#106,#91,.T.);
#136=EDGE_CURVE('',#110,#111,#22,.T.);
#137=EDGE_CURVE('',#110,#109,#67,.T.);
#138=EDGE_CURVE('',#112,#110,#23,.T.);
#139=EDGE_CURVE('',#113,#112,#24,.T.);
#140=EDGE_CURVE('',#111,#113,#25,.T.);
#141=EDGE_CURVE('',#114,#115,#92,.T.);
#142=EDGE_CURVE('',#114,#116,#68,.T.);
#143=EDGE_CURVE('',#116,#117,#93,.T.);
#144=EDGE_CURVE('',#117,#116,#94,.T.);
#145=EDGE_CURVE('',#115,#114,#95,.T.);
#146=EDGE_CURVE('',#117,#112,#69,.T.);
#147=EDGE_CURVE('',#111,#118,#70,.T.);
#148=EDGE_CURVE('',#119,#118,#96,.T.);
#149=EDGE_CURVE('',#118,#119,#97,.T.);
#150=EDGE_CURVE('',#119,#120,#71,.T.);
#151=EDGE_CURVE('',#120,#121,#98,.T.);
#152=EDGE_CURVE('',#121,#120,#99,.T.);
#153=EDGE_CURVE('',#122,#122,#100,.T.);
#154=EDGE_CURVE('',#122,#123,#72,.T.);
#155=EDGE_CURVE('',#124,#123,#26,.T.);
#156=EDGE_CURVE('',#125,#124,#27,.T.);
#157=EDGE_CURVE('',#123,#125,#28,.T.);
#158=EDGE_CURVE('',#126,#126,#101,.T.);
#159=EDGE_CURVE('',#126,#127,#73,.T.);
#160=EDGE_CURVE('',#127,#127,#102,.T.);
#161=EDGE_CURVE('',#121,#128,#74,.T.);
#162=EDGE_CURVE('',#128,#128,#103,.T.);
#163=EDGE_CURVE('',#106,#129,#75,.T.);
#164=EDGE_CURVE('',#129,#129,#104,.T.);
#165=EDGE_CURVE('',#130,#130,#105,.T.);
#166=EDGE_CURVE('',#130,#115,#76,.T.);
#167=ORIENTED_EDGE('',*,*,#131,.T.);
#168=ORIENTED_EDGE('',*,*,#132,.T.);
#169=ORIENTED_EDGE('',*,*,#133,.T.);
#170=ORIENTED_EDGE('',*,*,#134,.T.);
#171=ORIENTED_EDGE('',*,*,#132,.F.);
#172=ORIENTED_EDGE('',*,*,#135,.T.);
#173=ORIENTED_EDGE('',*,*,#136,.F.);
#174=ORIENTED_EDGE('',*,*,#137,.T.);
#175=ORIENTED_EDGE('',*,*,#133,.F.);
#176=ORIENTED_EDGE('',*,*,#134,.F.);
#177=ORIENTED_EDGE('',*,*,#137,.F.);
#178=ORIENTED_EDGE('',*,*,#138,.F.);
#179=ORIENTED_EDGE('',*,*,#139,.F.);
#180=ORIENTED_EDGE('',*,*,#140,.F.);
#181=ORIENTED_EDGE('',*,*,#141,.F.);
#182=ORIENTED_EDGE('',*,*,#142,.T.);
#183=ORIENTED_EDGE('',*,*,#143,.T.);
#184=ORIENTED_EDGE('',*,*,#144,.T.);
#185=ORIENTED_EDGE('',*,*,#142,.F.);
#186=ORIENTED_EDGE('',*,*,#145,.F.);
#187=ORIENTED_EDGE('',*,*,#143,.F.);
#188=ORIENTED_EDGE('',*,*,#144,.F.);
#189=ORIENTED_EDGE('',*,*,#146,.T.);
#190=ORIENTED_EDGE('',*,*,#138,.T.);
#191=ORIENTED_EDGE('',*,*,#136,.T.);
#192=ORIENTED_EDGE('',*,*,#147,.T.);
#193=ORIENTED_EDGE('',*,*,#148,.F.);
#194=ORIENTED_EDGE('',*,*,#149,.F.);
#195=ORIENTED_EDGE('',*,*,#147,.F.);
#196=ORIENTED_EDGE('',*,*,#140,.T.);
#197=ORIENTED_EDGE('',*,*,#139,.T.);
#198=ORIENTED_EDGE('',*,*,#146,.F.);
#199=ORIENTED_EDGE('',*,*,#148,.T.);
#200=ORIENTED_EDGE('',*,*,#149,.T.);
#201=ORIENTED_EDGE('',*,*,#150,.T.);
#202=ORIENTED_EDGE('',*,*,#151,.T.);
#203=ORIENTED_EDGE('',*,*,#152,.T.);
#204=ORIENTED_EDGE('',*,*,#150,.F.);
#205=ORIENTED_EDGE('',*,*,#153,.F.);
#206=ORIENTED_EDGE('',*,*,#154,.T.);
#207=ORIENTED_EDGE('',*,*,#155,.F.);
#208=ORIENTED_EDGE('',*,*,#156,.F.);
#209=ORIENTED_EDGE('',*,*,#157,.F.);
#210=ORIENTED_EDGE('',*,*,#154,.F.);
#211=ORIENTED_EDGE('',*,*,#158,.F.);
#212=ORIENTED_EDGE('',*,*,#159,.T.);
#213=ORIENTED_EDGE('',*,*,#160,.F.);
#214=ORIENTED_EDGE('',*,*,#159,.F.);
#215=ORIENTED_EDGE('',*,*,#155,.T.);
#216=ORIENTED_EDGE('',*,*,#157,.T.);
#217=ORIENTED_EDGE('',*,*,#156,.T.);
#218=ORIENTED_EDGE('',*,*,#151,.F.);
#219=ORIENTED_EDGE('',*,*,#152,.F.);
#220=ORIENTED_EDGE('',*,*,#161,.T.);
#221=ORIENTED_EDGE('',*,*,#162,.T.);
#222=ORIENTED_EDGE('',*,*,#161,.F.);
#223=ORIENTED_EDGE('',*,*,#131,.F.);
#224=ORIENTED_EDGE('',*,*,#163,.T.);
#225=ORIENTED_EDGE('',*,*,#164,.F.);
#226=ORIENTED_EDGE('',*,*,#163,.F.);
#227=ORIENTED_EDGE('',*,*,#135,.F.);
#228=ORIENTED_EDGE('',*,*,#164,.T.);
#229=ORIENTED_EDGE('',*,*,#153,.T.);
#230=ORIENTED_EDGE('',*,*,#162,.F.);
#231=ORIENTED_EDGE('',*,*,#158,.T.);
#232=ORIENTED_EDGE('',*,*,#165,.F.);
#233=ORIENTED_EDGE('',*,*,#166,.T.);
#234=ORIENTED_EDGE('',*,*,#145,.T.);
#235=ORIENTED_EDGE('',*,*,#141,.T.);
#236=ORIENTED_EDGE('',*,*,#166,.F.);
#237=ORIENTED_EDGE('',*,*,#165,.T.);
#238=ORIENTED_EDGE('',*,*,#160,.T.);
#239=CONICAL_SURFACE('',#275,165.375,0.785398163397448);
#240=CONICAL_SURFACE('',#285,165.375000000001,0.785398163397438);
#241=CONICAL_SURFACE('',#293,165.375,0.785398163397454);
#242=ADVANCED_FACE('',(#36),#239,.T.);
#243=ADVANCED_FACE('',(#37),#29,.T.);
#244=ADVANCED_FACE('',(#38),#240,.T.);
#245=ADVANCED_FACE('',(#39),#30,.T.);
#246=ADVANCED_FACE('',(#40),#241,.T.);
#247=ADVANCED_FACE('',(#41),#31,.F.);
#248=ADVANCED_FACE('',(#42,#18),#32,.F.);
#249=ADVANCED_FACE('',(#43),#33,.T.);
#250=ADVANCED_FACE('',(#44),#34,.T.);
#251=ADVANCED_FACE('',(#45,#19),#15,.T.);
#252=ADVANCED_FACE('',(#46,#20),#16,.T.);
#253=ADVANCED_FACE('',(#47),#35,.T.);
#254=ADVANCED_FACE('',(#48,#21),#17,.T.);
#255=CLOSED_SHELL('',(#242,#243,#244,#245,#246,#247,#248,#249,#250,#251,
#252,#253,#254));
#256=DERIVED_UNIT_ELEMENT(#258,1.);
#257=DERIVED_UNIT_ELEMENT(#482,-3.);
#258=(
MASS_UNIT()
NAMED_UNIT(*)
SI_UNIT($,.GRAM.)
);
#259=DERIVED_UNIT((#256,#257));
#260=MEASURE_REPRESENTATION_ITEM('density measure',
POSITIVE_RATIO_MEASURE(1.),#259);
#261=PROPERTY_DEFINITION_REPRESENTATION(#266,#263);
#262=PROPERTY_DEFINITION_REPRESENTATION(#267,#264);
#263=REPRESENTATION('material name',(#265),#479);
#264=REPRESENTATION('density',(#260),#479);
#265=DESCRIPTIVE_REPRESENTATION_ITEM('PE','PE');
#266=PROPERTY_DEFINITION('material property','material name',#489);
#267=PROPERTY_DEFINITION('material property','density of part',#489);
#268=DATE_TIME_ROLE('creation_date');
#269=APPLIED_DATE_AND_TIME_ASSIGNMENT(#270,#268,(#489));
#270=DATE_AND_TIME(#271,#272);
#271=CALENDAR_DATE(2021,19,10);
#272=LOCAL_TIME(0,0,0.,#273);
#273=COORDINATED_UNIVERSAL_TIME_OFFSET(0,0,.BEHIND.);
#274=AXIS2_PLACEMENT_3D('placement',#402,#313,#314);
#275=AXIS2_PLACEMENT_3D('',#403,#315,#316);
#276=AXIS2_PLACEMENT_3D('',#406,#317,#318);
#277=AXIS2_PLACEMENT_3D('',#410,#320,#321);
#278=AXIS2_PLACEMENT_3D('',#411,#322,#323);
#279=AXIS2_PLACEMENT_3D('',#412,#324,#325);
#280=AXIS2_PLACEMENT_3D('',#413,#326,#327);
#281=AXIS2_PLACEMENT_3D('',#416,#328,#329);
#282=AXIS2_PLACEMENT_3D('',#419,#331,#332);
#283=AXIS2_PLACEMENT_3D('',#421,#333,#334);
#284=AXIS2_PLACEMENT_3D('',#422,#335,#336);
#285=AXIS2_PLACEMENT_3D('',#423,#337,#338);
#286=AXIS2_PLACEMENT_3D('',#426,#339,#340);
#287=AXIS2_PLACEMENT_3D('',#430,#342,#343);
#288=AXIS2_PLACEMENT_3D('',#431,#344,#345);
#289=AXIS2_PLACEMENT_3D('',#432,#346,#347);
#290=AXIS2_PLACEMENT_3D('',#433,#348,#349);
#291=AXIS2_PLACEMENT_3D('',#438,#352,#353);
#292=AXIS2_PLACEMENT_3D('',#439,#354,#355);
#293=AXIS2_PLACEMENT_3D('',#440,#356,#357);
#294=AXIS2_PLACEMENT_3D('',#444,#359,#360);
#295=AXIS2_PLACEMENT_3D('',#445,#361,#362);
#296=AXIS2_PLACEMENT_3D('',#446,#363,#364);
#297=AXIS2_PLACEMENT_3D('',#448,#365,#366);
#298=AXIS2_PLACEMENT_3D('',#452,#368,#369);
#299=AXIS2_PLACEMENT_3D('',#454,#370,#371);
#300=AXIS2_PLACEMENT_3D('',#455,#372,#373);
#301=AXIS2_PLACEMENT_3D('',#456,#374,#375);
#302=AXIS2_PLACEMENT_3D('',#458,#376,#377);
#303=AXIS2_PLACEMENT_3D('',#461,#379,#380);
#304=AXIS2_PLACEMENT_3D('',#462,#381,#382);
#305=AXIS2_PLACEMENT_3D('',#465,#384,#385);
#306=AXIS2_PLACEMENT_3D('',#466,#386,#387);
#307=AXIS2_PLACEMENT_3D('',#469,#389,#390);
#308=AXIS2_PLACEMENT_3D('',#470,#391,#392);
#309=AXIS2_PLACEMENT_3D('',#471,#393,#394);
#310=AXIS2_PLACEMENT_3D('',#472,#395,#396);
#311=AXIS2_PLACEMENT_3D('',#474,#397,#398);
#312=AXIS2_PLACEMENT_3D('',#476,#400,#401);
#313=DIRECTION('axis',(0.,0.,1.));
#314=DIRECTION('refdir',(1.,0.,0.));
#315=DIRECTION('center_axis',(-0.707106781186548,0.,0.707106781186548));
#316=DIRECTION('ref_axis',(0.,-1.,0.));
#317=DIRECTION('center_axis',(-0.707106781186547,0.,0.707106781186548));
#318=DIRECTION('ref_axis',(0.,1.,0.));
#319=DIRECTION('',(-0.5,0.707106781186547,0.5));
#320=DIRECTION('center_axis',(0.707106781186547,0.,-0.707106781186548));
#321=DIRECTION('ref_axis',(0.,-1.,0.));
#322=DIRECTION('center_axis',(0.707106781186547,0.,-0.707106781186548));
#323=DIRECTION('ref_axis',(0.,-1.,0.));
#324=DIRECTION('center_axis',(-0.707106781186547,0.,0.707106781186548));
#325=DIRECTION('ref_axis',(0.,1.,0.));
#326=DIRECTION('center_axis',(-0.707106781186547,0.,0.707106781186548));
#327=DIRECTION('ref_axis',(0.,1.,0.));
#328=DIRECTION('center_axis',(-0.382683432365087,0.,0.923879532511288));
#329=DIRECTION('ref_axis',(-0.923879532511288,0.,-0.382683432365087));
#330=DIRECTION('',(0.707106781186547,0.,-0.707106781186548));
#331=DIRECTION('center_axis',(-0.923879532511287,0.,-0.38268343236509));
#332=DIRECTION('ref_axis',(0.38268343236509,0.,-0.923879532511287));
#333=DIRECTION('center_axis',(-0.923879532511287,0.,-0.38268343236509));
#334=DIRECTION('ref_axis',(0.38268343236509,0.,-0.923879532511287));
#335=DIRECTION('center_axis',(-0.382683432365087,0.,0.923879532511288));
#336=DIRECTION('ref_axis',(-0.923879532511288,0.,-0.382683432365087));
#337=DIRECTION('center_axis',(1.22464679914736E-16,0.,1.));
#338=DIRECTION('ref_axis',(1.,0.,-5.83165142451121E-17));
#339=DIRECTION('center_axis',(-1.22464679914735E-16,0.,-1.));
#340=DIRECTION('ref_axis',(1.,0.,-1.22464679914735E-16));
#341=DIRECTION('',(-0.707106781186539,8.65956056235484E-17,0.707106781186556));
#342=DIRECTION('center_axis',(-1.22464679914735E-16,0.,-1.));
#343=DIRECTION('ref_axis',(1.,0.,0.));
#344=DIRECTION('center_axis',(-1.22464679914735E-16,0.,-1.));
#345=DIRECTION('ref_axis',(1.,0.,0.));
#346=DIRECTION('center_axis',(-1.22464679914735E-16,0.,-1.));
#347=DIRECTION('ref_axis',(1.,0.,-1.22464679914735E-16));
#348=DIRECTION('center_axis',(-1.22464679914735E-16,0.,-1.));
#349=DIRECTION('ref_axis',(-1.,0.,0.));
#350=DIRECTION('',(1.22464679914735E-16,0.,1.));
#351=DIRECTION('',(1.22464679914735E-16,0.,1.));
#352=DIRECTION('center_axis',(1.22464679914735E-16,0.,1.));
#353=DIRECTION('ref_axis',(1.,0.,0.));
#354=DIRECTION('center_axis',(1.22464679914735E-16,0.,1.));
#355=DIRECTION('ref_axis',(1.,0.,0.));
#356=DIRECTION('center_axis',(-1.22464679914735E-16,0.,-1.));
#357=DIRECTION('ref_axis',(1.,0.,-5.8316514245112E-17));
#358=DIRECTION('',(0.707106781186552,-8.65956056235499E-17,0.707106781186543));
#359=DIRECTION('center_axis',(-1.22464679914735E-16,0.,-1.));
#360=DIRECTION('ref_axis',(1.,0.,-1.22464679914735E-16));
#361=DIRECTION('center_axis',(-1.22464679914735E-16,0.,-1.));
#362=DIRECTION('ref_axis',(1.,0.,-1.22464679914735E-16));
#363=DIRECTION('center_axis',(-0.707106781186547,0.,0.707106781186548));
#364=DIRECTION('ref_axis',(-0.707106781186548,0.,-0.707106781186547));
#365=DIRECTION('center_axis',(-0.707106781186547,0.,0.707106781186548));
#366=DIRECTION('ref_axis',(-0.707106781186548,0.,-0.707106781186547));
#367=DIRECTION('',(-0.707106781186547,0.,0.707106781186548));
#368=DIRECTION('center_axis',(0.38268343236509,0.,-0.923879532511287));
#369=DIRECTION('ref_axis',(-0.923879532511287,0.,-0.38268343236509));
#370=DIRECTION('center_axis',(0.923879532511287,0.,0.382683432365089));
#371=DIRECTION('ref_axis',(0.382683432365089,0.,-0.923879532511287));
#372=DIRECTION('center_axis',(0.38268343236509,0.,-0.923879532511287));
#373=DIRECTION('ref_axis',(-0.923879532511287,0.,-0.38268343236509));
#374=DIRECTION('center_axis',(-1.22718952635596E-16,0.,-1.));
#375=DIRECTION('ref_axis',(1.,0.,-1.22718952635596E-16));
#376=DIRECTION('center_axis',(-1.22464679914735E-16,0.,-1.));
#377=DIRECTION('ref_axis',(1.,0.,-1.22718952635596E-16));
#378=DIRECTION('',(-1.22718952635596E-16,0.,-1.));
#379=DIRECTION('center_axis',(1.22464679914735E-16,0.,1.));
#380=DIRECTION('ref_axis',(1.,0.,-1.22718952635596E-16));
#381=DIRECTION('center_axis',(-1.22464679914735E-16,0.,-1.));
#382=DIRECTION('ref_axis',(-1.,0.,0.));
#383=DIRECTION('',(1.22464679914735E-16,0.,1.));
#384=DIRECTION('center_axis',(-1.22464679914735E-16,0.,-1.));
#385=DIRECTION('ref_axis',(1.,0.,-1.22464679914735E-16));
#386=DIRECTION('center_axis',(-0.707106781186547,0.,0.707106781186548));
#387=DIRECTION('ref_axis',(0.,1.,0.));
#388=DIRECTION('',(0.707106781186547,0.,-0.707106781186548));
#389=DIRECTION('center_axis',(0.707106781186547,0.,-0.707106781186548));
#390=DIRECTION('ref_axis',(0.,1.,0.));
#391=DIRECTION('center_axis',(0.707106781186547,0.,-0.707106781186548));
#392=DIRECTION('ref_axis',(-0.707106781186548,0.,-0.707106781186547));
#393=DIRECTION('center_axis',(1.22464679914735E-16,0.,1.));
#394=DIRECTION('ref_axis',(1.,0.,-1.22464679914735E-16));
#395=DIRECTION('center_axis',(-1.22464679914735E-16,0.,-1.));
#396=DIRECTION('ref_axis',(-1.,0.,0.));
#397=DIRECTION('center_axis',(-1.22464679914735E-16,0.,-1.));
#398=DIRECTION('ref_axis',(1.,0.,-1.22464679914735E-16));
#399=DIRECTION('',(1.22464679914735E-16,0.,1.));
#400=DIRECTION('center_axis',(-1.22464679914735E-16,0.,-1.));
#401=DIRECTION('ref_axis',(-1.,0.,1.22464679914735E-16));
#402=CARTESIAN_POINT('',(0.,0.,0.));
#403=CARTESIAN_POINT('Origin',(345.86360434787,0.,-648.86360434787));
#404=CARTESIAN_POINT('',(351.432070249714,-157.5,-654.432070249715));
#405=CARTESIAN_POINT('',(351.432070249714,157.5,-654.432070249715));
#406=CARTESIAN_POINT('Origin',(351.432070249714,0.,-654.432070249715));
#407=CARTESIAN_POINT('',(340.295138446026,173.25,-643.295138446026));
#408=CARTESIAN_POINT('',(345.86360434787,165.375,-648.86360434787));
#409=CARTESIAN_POINT('',(340.295138446026,-173.25,-643.295138446026));
#410=CARTESIAN_POINT('Origin',(340.295138446026,0.,-643.295138446026));
#411=CARTESIAN_POINT('Origin',(340.295138446026,0.,-643.295138446026));
#412=CARTESIAN_POINT('Origin',(351.432070249714,0.,-654.432070249715));
#413=CARTESIAN_POINT('Origin',(351.432070249714,0.,-654.432070249715));
#414=CARTESIAN_POINT('',(-7.105427357601E-14,-173.25,-303.));
#415=CARTESIAN_POINT('',(173.25,-2.12170057952279E-14,-231.237500318862));
#416=CARTESIAN_POINT('Origin',(-7.105427357601E-14,0.,-303.));
#417=CARTESIAN_POINT('',(351.432070249714,-173.25,-654.432070249715));
#418=CARTESIAN_POINT('',(173.25,-2.1217005795228E-14,-721.26249968114));
#419=CARTESIAN_POINT('Origin',(7.105427357601E-14,0.,-303.));
#420=CARTESIAN_POINT('',(-7.105427357601E-14,173.25,-303.));
#421=CARTESIAN_POINT('Origin',(7.105427357601E-14,0.,-303.));
#422=CARTESIAN_POINT('Origin',(-7.105427357601E-14,0.,-303.));
#423=CARTESIAN_POINT('Origin',(-9.70073345774597E-14,0.,-792.125));
#424=CARTESIAN_POINT('',(-157.5,0.,-800.));
#425=CARTESIAN_POINT('',(157.5,-1.92881870865709E-14,-800.));
#426=CARTESIAN_POINT('Origin',(-9.79717439317883E-14,0.,-800.));
#427=CARTESIAN_POINT('',(-173.25,2.12170057952279E-14,-784.25));
#428=CARTESIAN_POINT('',(-165.375000000001,2.02525964408994E-14,-792.125));
#429=CARTESIAN_POINT('',(173.25,-2.12170057952279E-14,-784.25));
#430=CARTESIAN_POINT('Origin',(-9.60429252231312E-14,0.,-784.25));
#431=CARTESIAN_POINT('Origin',(-9.60429252231312E-14,0.,-784.25));
#432=CARTESIAN_POINT('Origin',(-9.79717439317883E-14,0.,-800.));
#433=CARTESIAN_POINT('Origin',(-5.90892080588598E-14,0.,-482.5));
#434=CARTESIAN_POINT('',(173.25,-2.12170057952279E-14,-482.5));
#435=CARTESIAN_POINT('',(173.25,-2.12170057952279E-14,-180.75));
#436=CARTESIAN_POINT('',(173.25,-2.12170057952279E-14,-482.5));
#437=CARTESIAN_POINT('',(-173.25,-2.12170057952279E-14,-180.75));
#438=CARTESIAN_POINT('Origin',(-2.21354908945884E-14,0.,-180.75));
#439=CARTESIAN_POINT('Origin',(-2.21354908945884E-14,0.,-180.75));
#440=CARTESIAN_POINT('Origin',(-2.11710815402599E-14,0.,-172.875));
#441=CARTESIAN_POINT('',(-157.5,0.,-165.));
#442=CARTESIAN_POINT('',(-165.375,2.02525964408994E-14,-172.875));
#443=CARTESIAN_POINT('',(157.5,-1.92881870865708E-14,-165.));
#444=CARTESIAN_POINT('Origin',(-2.02066721859313E-14,0.,-165.));
#445=CARTESIAN_POINT('Origin',(-2.02066721859313E-14,0.,-165.));
#446=CARTESIAN_POINT('Origin',(468.104689145494,0.,-771.104689145495));
#447=CARTESIAN_POINT('',(566.251110374187,1.69980975721653E-14,-672.958267916802));
#448=CARTESIAN_POINT('Origin',(468.104689145494,0.,-771.104689145495));
#449=CARTESIAN_POINT('',(138.8,1.69980975721653E-14,-245.507157542614));
#450=CARTESIAN_POINT('',(566.251110374187,1.69980975721653E-14,-672.958267916802));
#451=CARTESIAN_POINT('',(-7.105427357601E-14,138.8,-303.));
#452=CARTESIAN_POINT('Origin',(-2.1316282072803E-13,0.,-303.));
#453=CARTESIAN_POINT('',(-7.105427357601E-14,-138.8,-303.));
#454=CARTESIAN_POINT('Origin',(1.4210854715202E-13,0.,-303.));
#455=CARTESIAN_POINT('Origin',(-2.1316282072803E-13,0.,-303.));
#456=CARTESIAN_POINT('Origin',(0.,0.,0.));
#457=CARTESIAN_POINT('',(-138.8,1.69980975721653E-14,1.69933426722852E-14));
#458=CARTESIAN_POINT('Origin',(-4.91464291308052E-33,0.,-4.00479535355404E-17));
#459=CARTESIAN_POINT('',(-138.8,-1.69980975721653E-14,-965.));
#460=CARTESIAN_POINT('',(-138.8,1.69980975721653E-14,1.70333906258207E-14));
#461=CARTESIAN_POINT('Origin',(-1.1842378929335E-13,0.,-965.));
#462=CARTESIAN_POINT('Origin',(-1.01033360929657E-14,0.,-82.5));
#463=CARTESIAN_POINT('',(157.5,-1.92881870865708E-14,1.77635683940025E-14));
#464=CARTESIAN_POINT('',(157.5,-1.92881870865708E-14,-82.5));
#465=CARTESIAN_POINT('Origin',(0.,0.,0.));
#466=CARTESIAN_POINT('Origin',(468.104689145494,0.,-771.104689145495));
#467=CARTESIAN_POINT('',(468.104689145494,-157.5,-771.104689145495));
#468=CARTESIAN_POINT('',(468.104689145494,-157.5,-771.104689145495));
#469=CARTESIAN_POINT('Origin',(468.104689145494,0.,-771.104689145495));
#470=CARTESIAN_POINT('Origin',(468.104689145494,0.,-771.104689145495));
#471=CARTESIAN_POINT('Origin',(-157.5,0.,1.92881870865708E-14));
#472=CARTESIAN_POINT('Origin',(-1.08075080024754E-13,0.,-882.5));
#473=CARTESIAN_POINT('',(157.5,-1.92881870865709E-14,-965.));
#474=CARTESIAN_POINT('Origin',(-1.1817841611772E-13,0.,-965.));
#475=CARTESIAN_POINT('',(157.5,-1.92881870865709E-14,-882.5));
#476=CARTESIAN_POINT('Origin',(-1.1817841611772E-13,0.,-965.));
#477=UNCERTAINTY_MEASURE_WITH_UNIT(LENGTH_MEASURE(0.01),#481,
'DISTANCE_ACCURACY_VALUE',
'Maximum model space distance between geometric entities at asserted c
onnectivities');
#478=UNCERTAINTY_MEASURE_WITH_UNIT(LENGTH_MEASURE(0.01),#481,
'DISTANCE_ACCURACY_VALUE',
'Maximum model space distance between geometric entities at asserted c
onnectivities');
#479=(
GEOMETRIC_REPRESENTATION_CONTEXT(3)
GLOBAL_UNCERTAINTY_ASSIGNED_CONTEXT((#477))
GLOBAL_UNIT_ASSIGNED_CONTEXT((#481,#483,#484))
REPRESENTATION_CONTEXT('','3D')
);
#480=(
GEOMETRIC_REPRESENTATION_CONTEXT(3)
GLOBAL_UNCERTAINTY_ASSIGNED_CONTEXT((#478))
GLOBAL_UNIT_ASSIGNED_CONTEXT((#481,#483,#484))
REPRESENTATION_CONTEXT('','3D')
);
#481=(
LENGTH_UNIT()
NAMED_UNIT(*)
SI_UNIT(.MILLI.,.METRE.)
);
#482=(
LENGTH_UNIT()
NAMED_UNIT(*)
SI_UNIT(.CENTI.,.METRE.)
);
#483=(
NAMED_UNIT(*)
PLANE_ANGLE_UNIT()
SI_UNIT($,.RADIAN.)
);
#484=(
NAMED_UNIT(*)
SI_UNIT($,.STERADIAN.)
SOLID_ANGLE_UNIT()
);
#485=SHAPE_DEFINITION_REPRESENTATION(#486,#487);
#486=PRODUCT_DEFINITION_SHAPE('',$,#489);
#487=SHAPE_REPRESENTATION('',(#274),#479);
#488=PRODUCT_DEFINITION_CONTEXT('part definition',#493,'design');
#489=PRODUCT_DEFINITION('YDE17-315','YDE17-315',#490,#488);
#490=PRODUCT_DEFINITION_FORMATION('0',$,#495);
#491=PRODUCT_RELATED_PRODUCT_CATEGORY('YDE17-315','YDE17-315',(#495));
#492=APPLICATION_PROTOCOL_DEFINITION('international standard',
'automotive_design',2009,#493);
#493=APPLICATION_CONTEXT(
'Core Data for Automotive Mechanical Design Process');
#494=PRODUCT_CONTEXT('part definition',#493,'mechanical');
#495=PRODUCT('YDE17-315','YDE17-315',
'PE100 45\X\B0 Wye with long spigot ends, \X\D8315, SDR17 PN10',(#494));
#496=PRESENTATION_STYLE_ASSIGNMENT((#497));
#497=SURFACE_STYLE_USAGE(.BOTH.,#500);
#498=SURFACE_STYLE_RENDERING_WITH_PROPERTIES($,#504,(#499));
#499=SURFACE_STYLE_TRANSPARENT(0.);
#500=SURFACE_SIDE_STYLE('',(#501,#498));
#501=SURFACE_STYLE_FILL_AREA(#502);
#502=FILL_AREA_STYLE('',(#503));
#503=FILL_AREA_STYLE_COLOUR('',#504);
#504=COLOUR_RGB('',0.109803921568627,0.109803921568627,0.129411764705882);
ENDSEC;
END-ISO-10303-21;
